Oops, an error
Loading. Please wait.

El Padrino Tab

version 2
version 2

Whole song

472 views 9 this week
no commentswrite comment
1 2 3 4 5
3 more votes to show rating
add to favorites
launch autoscroll
font size
0
reset
how to read this tab
guitar tuner
×
Best way to learn
"El Padrino"
Autoscroll
slow
fast
+/-
esc
set tempo
stop
e|-----------------------|-------------------------|-----------------|
B|-15--14-15-16-15-15----|---15--14-15-16-15-15----|-----------------|
G|--------------------15-|----------------------14-|-----------------|
D|-----------------------|-------------------------|-----------------|
A|-----------------------|-------------------------|-----------------|
E|-----------------------|-------------------------|-----------------|

e|--------------------------------|----------------------------------|
B|-15--14-15-18-15-14~~----14~~---|----------------------------------|
G|--------------------14~~----14~~|----------------------------------|
D|--------------------------------|----------------------------------|
A|--------------------------------|----------------------------------|
E|--------------------------------|----------------------------------|

e|--10-13-12-10-13-10-12-10---------|--10-13-12-10-13-10-12-10-------|
B|10-----------------------11-13-10-|10------------------------10-9-8|
G|----------------------------------|--------------------------------|
D|----------------------------------|--------------------------------|
A|----------------------------------|--------------------------------|
E|----------------------------------|--------------------------------|

e|---------6-9-9-|---------------------------------------------------|
B|--6-10-8-------|------13-11-10-13-11-10-10-------------------------|
G|7--------------|---10----------------------------------------------|
D|---------------|12-------------------------11-12-------------------|
A|---------------|---------------------------------------------------|
E|---------------|---------------------------------------------------|

e|-10-10-9-8-10-12-10------------------------------------------------|
B|--------------------11-10-10-13-10-8---8-11-9-10-------------------|
G|-------------------------------------------------------------------|
D|-------------------------------------------------------------------|
A|-------------------------------------------------------------------|
E|-------------------------------------------------------------------|

e|---10-13-12-10-13-10-1210---------|--10-13-12-10-13-10-12-10-------|
B|10-----------------------11-13-10-|10-----------------------10-9-8-|
G|----------------------------------|--------------------------------|
D|----------------------------------|--------------------------------|
A|----------------------------------|--------------------------------|
E|----------------------------------|--------------------------------|

e|---------6-9-9-|---------------------------9-10--------------------|
B|--6-10-8-------|------13-11-10-13-11-10-10-------------------------|
G|7--------------|---10----------------------------------------------|
D|---------------|12-------------------------------------------------|
A|---------------|---------------------------------------------------|
E|---------------|---------------------------------------------------|
Suggest correction
Give kudos to tab author, rate the tab!
1 2 3 4 5
comments
print report bad tab
guest
You may want to rate the tab now too:
select rating
Wanna post a correction for this tab? Suggest correction