Oops, an error
Loading. Please wait.

El Padrino Bass Tab

146 views 9 this week
no commentswrite comment
1 2 3 4 5
3 more votes to show rating
add to favorites
launch autoscroll
font size
0
reset
guitar tuner
×
Best way to learn
"El Padrino"
Autoscroll
slow
fast
+/-
esc
set tempo
stop
--------------------------------
---10---------------------------
------10-13-12-10-13-10-12-10---
--------------------------------

--------------------------------
--------------------------------
---11--13--10-------------------
--------------------------------


--------------------------------
---8--11-------8--11------------
---------9--12-------9--10------
--------------------------------

--------------------------------
--------------------------------
---10--13-----------------------
-----------15--13--12-----------

--------------------------------
--------------------------------
--------------------9--10-------
---15--13--13--12---------------
Suggest correction
Give kudos to tab author, rate the tab!
1 2 3 4 5
comments
print report bad tab
guest
You may want to rate the tab now too:
select rating
Wanna post a correction for this tab? Suggest correction