Oops, an error
Loading. Please wait.

El Señor De Los Anillos Tab

version 2
version 2

Whole song

1,078 views 21 this week
no commentswrite comment
1 2 3 4 5
3 more votes to show rating
add to favorites
launch autoscroll
font size
0
reset
how to read this tab
guitar tuner
×
Best way to learn
"El Señor De Los Anillos"
Autoscroll
slow
fast
+/-
esc
set tempo
stop
 hola espero que os guste este fragmento de cancion.

   t----------------------------------------------------
    ----------------------------------------------------
   a------------------0--2--3--2--0-----0----2---0------
    --2---0--0--0--2-----------------3------------------
   b----------------------------------------------------
    ----------------------------------------------------

    -----------------------------------------------------------
    -----------------------------------------------------------
    --------------------------0---2---3--2--0------0--2--0-----
    --3---2---0------------0--------------------3--------------
    -------------3--3-3-3--------------------------------------
    -----------------------------------------------------------

    -----------------------------------------------------------
    ---------------------------------1-----1--3-3--1--3--------
    ------------------0--2--3--2--3-----3----------------------
    -2----0--0-0-2---------------------------------------------
    -----------------------------------------------------------
Suggest correction
Give kudos to tab author, rate the tab!
1 2 3 4 5
comments
print report bad tab
guest
You may want to rate the tab now too:
select rating
Wanna post a correction for this tab? Suggest correction