Oops, an error
Loading. Please wait.

El Último Mohicano Tab

version 2
version 2

Whole song

178 views 1 this week
no commentswrite comment
1 2 3 4 5
3 more votes to show rating
add to favorites
launch autoscroll
font size
0
reset
how to read this tab
guitar tuner
×
Best way to learn
"El último Mohicano"
Autoscroll
slow
fast
+/-
esc
set tempo
stop
Como hay varios punteos y para que podáis tocarlos todos,
podéis seguir este vídeo 

Símbolos usados:
~ Vibrato
/ Slide

La canción se divide en:
-----------------------
1) Acordes
2) Arpegio
3) Punteo Bajo
4) Melodía principal
-----------------------

1) Empiezan los acordes:

| Rem | Rem | Do | Do | Fa | Do | Rem | Rem |

2) Empieza el arpegio (las puntos que están debajo son el
?punteo bajo? que comienza y está explicado después):

  [ch]Dm                     REm[/ch]
|-----------------------|-----------------------|
|-----6-5---5-----------|-----6-5---5-----------|
|---------7---7-5-7-5---|---------7---7-5-7-5---|
|-7-7-----------------8-|-7-7-----------------8-|
|-----------------------|-----------------------|
|-----------------------|-----------------------|
  .         .             .         .

    [ch]C                      DO[/ch]
|-----------------------|-----------------------|
|-------5-5-8-5-5/3/5---|-------5-5-8-5-5/3/5---|
|---5-5-----------------|---5-5-----------------|
|-----------------------|-----------------------|
|-----------------------|-----------------------|
|-----------------------|-----------------------|
    .       .               .       .

  [ch]F                      [ch]C[/ch]                     REm[/ch]
|-----------------------|----------------------|--------------------|
|-6-6-6-5-6-8---6-6-5---|-5-5-5---5-8--5-5-----|------------6-5-----|
|---------------------7-|-------7----------7-5-|-7--7-7-5-7-----7---|
|-----------------------|----------------------|-----------------7--|
|-----------------------|----------------------|--------------------|
|-----------------------|----------------------|--------------------|
  .         .             .         .            .          .

       [ch]Dm[/ch]
|------------------------------|
|-----------------6-5---5------|
|-5-7--7--7-7-5-7-----7---7-5--|
|------------------------------|
|------------------------------|
|------------------------------|
       .          .


3) Comienza el Punteo Bajo:

Estas notas están punteadas cuando indican los puntos en el
 arpegio anterior y son las siguientes (en la 4ª y 5ª cuerda (D y A)):


    [ch]Dm   REm   [ch]C    DO    [ch]F    DO[/ch]    REm[/ch]     REm[/ch]
D |-----|-----|-----|-----|-3-3-|-2-2-|-------|-----|
A |-5-5-|-5-5-|-3-3-|-3-3-|-----|-----|-3/5-5-|-5-5-|
    . .   . .   . .   . .   . .   . .   .   .   . .

Es un punteo sencillo.

4) Comienza la melodía principal:

En el video se toca dos veces. La segunda vez tiene
una pequeña variación al final:

  [ch]Dm    REm     [ch]C      [ch]F[/ch]         DO[/ch]    REm[/ch]
|-1--0---------1-0-3-3~~-1-5----3-1-0-3---0-------|
|------3-----3------------------------------3-----|
|--------2----------------------------------------|
|-------------------------------------------------|
|-------------------------------------------------|
|-------------------------------------------------|


  [ch]Dm    REm     [ch]C      [ch]F[/ch]         DO[/ch]    REm[/ch]
|-1--0---------1-0-3-3~~-1-5----3-1-0-3-----1-----|
|------3-----3----------------------------3---1-3-|
|--------2----------------------------------------|
|-------------------------------------------------|
|-------------------------------------------------|
|-------------------------------------------------|


Ahora viene un pequeño ?descanso? en el que sólo se tocan los
acordes y a la mitad se puntean tres notas similares al ?punteo bajo?:

    [ch]F  [ch]C[/ch]  REm[/ch]
D |-3-|-2-|-----|
A |---|---|-3/5-|

A continuación comienzan nuevamente a tocar el arpegio,
el punteo bajo normal, y la melodía principal, solo que
esta última está en una octava superior:

  [ch]Dm      REm        [ch]C      [ch]F[/ch]           DO[/ch]      REm[/ch]
|-13--12-10-----10-13-12-15~~-13-17--15-13-12-15---12-10-|
|----------10--------------------------------------------|
|--------------------------------------------------------|
|--------------------------------------------------------|
|--------------------------------------------------------|
|--------------------------------------------------------|

En el video, esta también se toca dos veces, y la segunda vez tiene
una pequeña variación para finalizar la canción:

  [ch]Dm      REm        [ch]C         [ch]F[/ch]           DO[/ch]      REm[/ch]
|-13--12-10-----10-13-12-15-15~~-13-17--15-13-12-15---13-12-10-12-10-8-10-|
|----------10-------------------------------------------------------------|
|-------------------------------------------------------------------------|
|-------------------------------------------------------------------------|
|-------------------------------------------------------------------------|
|-------------------------------------------------------------------------|

El arpegio también hace una variación al final para finalizar la canción:
                                                      [ch]Dm[/ch]
                                                    ----------------------|
                                                    --6--5-----5----------|
                                                    --------7-----7--5--7-|
                                                    ----------------------|
                                                    ----------------------|
                                                    ----------------------|
                                                      .
Esto es todo. La tablatura está 100% igual que el video.
No es difícil de tocar.

Se puede tocar entre varias personas y cada una hace una parte
diferente de la canción.

Se puede hacer cualquier tipo de variación sobre esta base, (tocarla más
deprisa o más despacio; omitir o repetir más veces algunos
fragmentos... etc.)

CUALQUIER duda, mejora, consejo o lo que queráis a danyof@

Un saludo!
Suggest correction
Give kudos to tab author, rate the tab!
1 2 3 4 5
comments
print report bad tab
guest
You may want to rate the tab now too:
select rating
Wanna post a correction for this tab? Suggest correction