Oops, an error
Loading. Please wait.

Hallowen Tab

91 views 1 this week
no commentswrite comment
1 2 3 4 5
3 more votes to show rating
add to favorites
launch autoscroll
font size
0
reset
how to read this tab
guitar tuner
×
Best way to learn
"Hallowen"
Autoscroll
slow
fast
+/-
esc
set tempo
stop
esta cancion es muy divertida solo agarrenle el ritmo 
y se oye chida


1-7----7-----7---8----7----7-----7---8
2--5-5---5-5---5-------5-5---5-5---5--
3-------------------------------------
4-------------------------------------
5-------------------------------------
6-------------------------------------
y de eso te vas suviendo un traste cada 2 veses


1-6----6-----6---7-----6----6-----6---7----
2--4-4---4-4---4--------4-4---4-4---4------
3------------------------------------------
4------------------------------------------
5------------------------------------------
6------------------------------------------


1-5----5-----5---6-----5----5-----5---6----
2--3-3---3-3---3--------3-3---3-3---3------
3------------------------------------------
4------------------------------------------
5------------------------------------------
6------------------------------------------


1-4----4-----4---5-----4----4-----4---5----
2--2-2---2-2---2--------2-2---2-2---2------
3------------------------------------------
4------------------------------------------
5------------------------------------------
6------------------------------------------


1-3----3-----3---4-----3----3-----3---4----
2--1-1---1-1---1--------1-1---1-1---1------
3------------------------------------------
4------------------------------------------
5------------------------------------------
6------------------------------------------


1-2----2-----2---3-----2----2-----2---3----
2--0-0---0-0---0--------0-0---0-0---0------
3------------------------------------------
4------------------------------------------
5------------------------------------------
6------------------------------------------


y continua desde el prinsipio
1-7----7-----7---8----7----7-----7---8
2--5-5---5-5---5-------5-5---5-5---5--
3-------------------------------------
4-------------------------------------
5-------------------------------------
6-------------------------------------


1-6----6-----6---7-----6----6-----6---7----
2--4-4---4-4---4--------4-4---4-4---4------
3------------------------------------------
4------------------------------------------
5------------------------------------------
6------------------------------------------


1-5----5-----5---6-----5----5-----5---6----
2--3-3---3-3---3--------3-3---3-3---3------
3------------------------------------------
4------------------------------------------
5------------------------------------------
6------------------------------------------


1-4----4-----4---5-----4----4-----4---5----
2--2-2---2-2---2--------2-2---2-2---2------
3------------------------------------------
4------------------------------------------
5------------------------------------------
6------------------------------------------


1-3----3-----3---4-----3----3-----3---4----
2--1-1---1-1---1--------1-1---1-1---1------
3------------------------------------------
4------------------------------------------
5------------------------------------------
6------------------------------------------


1-2----2-----2---3-----2----2-----2---3----
2--0-0---0-0---0--------0-0---0-0---0------
3------------------------------------------
4------------------------------------------
5------------------------------------------
6------------------------------------------


cualquier duda esta el mail enrique_veliz@
Suggest correction
Give kudos to tab author, rate the tab!
1 2 3 4 5
comments
print report bad tab
guest
You may want to rate the tab now too:
select rating
Wanna post a correction for this tab? Suggest correction