Oops, an error
Loading. Please wait.

Harry Potter Tab

version 1
version 1

Whole song

2,773 views 9 this week
no commentswrite comment
1 2 3 4 5
x 18
add to favorites
launch autoscroll
font size
0
reset
how to read this tab
guitar tuner
×
Best way to learn
"Harry Potter"
Autoscroll
slow
fast
+/-
esc
set tempo
stop
Harry Potter Theme
Compositor: John Williams

E|----0-3-2-0-7-5-2--0--3-2-1--|
B|---0--------------0------3-0-|
G|-----------------------------|
D|-----------------------------|
A|-----------------------------|
E|-----------------------------|

E|----0-3-2-0-7-10-9-8--5-8-7-6--3-0-|
B|---0--------------------------0----|
G|-----------------------------------|
D|-----------------------------------|
A|-----------------------------------|
E|-----------------------------------|
Suggest correction
comments
print report bad tab
guest
You may want to rate the tab now too:
select rating
Wanna post a correction for this tab? Suggest correction