Oops, an error
Loading. Please wait.

Helloween Tab

version 2
version 2

Whole song

22 views 1 this week
no commentswrite comment
1 2 3 4 5
3 more votes to show rating
add to favorites
launch autoscroll
font size
0
reset
how to read this tab
guitar tuner
Autoscroll
slow
fast
+/-
esc
set tempo
stop
Help us to improve Ultimate-Guitar.com Take our survey!
×
E||--7--------7-----8-----7----------|--7--------7-----8-----7----------|
B||-----5--5-----5-----5-----5--5----|-----5--5-----5-----5-----5--5----|
G||----------------------------------|----------------------------------|
D||----------------------------------|----------------------------------|
A||----------------------------------|----------------------------------|
E||----------------------------------|----------------------------------|
                                                                              
E||--6--------6-----7-----6----------|--6--------6-----7-----6---------||
B||-----4--4-----4-----4-----4--4----|-----4--4-----4-----4-----4--4---||
G||----------------------------------|---------------------------------||
D||----------------------------------|---------------------------------||
A||----------------------------------|---------------------------------||
E||----------------------------------|---------------------------------||

Bueno, el tema es bastante facil, pero como se toca muy rapido lo
podes usar como ejercicio de pua/contrapua

si alguien saca los acordes estaria de lujo, gracias

cualquier cosa escribime
Suggest correction
Give kudos to tab author, rate the tab!
1 2 3 4 5
comments
print report bad tab
guest
You may want to rate the tab now too:
select rating
Wanna post a correction for this tab? Suggest correction