Oops, an error
Loading. Please wait.

Iron Man Tab

version 2
version 2

Whole song

44 views 3 this week
no commentswrite comment
1 2 3 4 5
3 more votes to show rating
add to favorites
launch autoscroll
font size
0
reset
how to read this tab
guitar tuner
Autoscroll
slow
fast
+/-
esc
set tempo
stop
Help us to improve Ultimate-Guitar.com Take our survey!
×
IRON MAN=EL HOMBRE DE HIERRO
por enrique vazquez cruz

e------------------------------------------------------------
b------------------------------------------------------------
g------------------------------------------------------------
d------------------------------------------------------------
a-----------------------3---2---3---2---3---2----------------
e---0---3---3---5---5---------------------------3---3---5---5


x------------------------------------------------------------
x------------------------------------------------------------
x------------------------------------------------------------
d----------5------5------7------7-------10--9--10--9--10--9--
a---7------5------5------7------7-------10--9--10--9--10--9--
e----------3------3------5------5-------8---7--8---7--8---7--


x-----------------------------------------------------------
x------------------------------------------------------------
x------------------------------------------------------------
x---5------5------7------7-----------------------------------
d---5------5------7------7-----------------------------------
a---3------3------5------5------------------------------------
e
Suggest correction
Give kudos to tab author, rate the tab!
1 2 3 4 5
comments
print report bad tab
guest
You may want to rate the tab now too:
select rating
Wanna post a correction for this tab? Suggest correction