Oops, an error
Loading. Please wait.

James Bond Bass Tab

210 views 3 this week
no commentswrite comment
1 2 3 4 5
2 more votes to show rating
add to favorites
launch autoscroll
font size
0
reset
guitar tuner
×
Best way to learn
"James Bond"
Autoscroll
slow
fast
+/-
esc
set tempo
stop
intro
G|-4-4---------4-4---------4-4-4-4-|
D|---------------------------------|
A|--------2-----------2------------|
E|---------------------------------|


riff base
G|----------|----------|
D|----------|----------| repite
A|----------|----------| bastante
E|--0----0--|--0----0--|


G|----------------|----------------|----------------|
D|----------------|----------------|----2-1-0-------| x4
A|--2-------------|----------------|--2--------4-2--|
E|--------3-2--0--|----------------|----------------|


G|-------------------------------|
D|----------1---1-2-2----2-1---1-| x2
A|-2-2----2---4--------------4---|
E|-------------------------------|


G|-4-4---------4-4---------4-4-4-4-|
D|---------------------------------|
A|--------2-----------2------------|
E|---------------------------------|


vuelve al riff base y antes   G|--------------|
de terminar la cancion hace:  D|----------1-0-|
                              A|--------------|
                              E|-0-3----------|


cualquier consulta escriban a maro_rnr@
Suggest correction
Give kudos to tab author, rate the tab!
1 2 3 4 5
comments
print report bad tab
guest
You may want to rate the tab now too:
select rating
Wanna post a correction for this tab? Suggest correction