Oops, an error
Loading. Please wait.

Kill Bill 2 - Malagueña Tab

version 1
version 1

Whole song

736 views 1 this week
no commentswrite comment
1 2 3 4 5
3 more votes to show rating
add to favorites
launch autoscroll
font size
0
reset
how to read this tab
guitar tuner
×
Best way to learn
"Kill Bill 2 - Malagueña"
Autoscroll
slow
fast
+/-
esc
set tempo
stop
Distrútenla  Atte: USIRISH

E---|--r--r--r-----------------|----------------------------------------
B---|--e--e--e-----------------|----------------------------------------
G---|--s--s--s--------8-----8--|----------------------------------------
D---|--t--t--t-----9-----9-----|----------------------------------------
A---|--------------------------|----------------------------------------
E---|--------------------------|----------------------------------------

E-----------------------------------------------------------------------
B-----------------------------------------------------------------------
G---11--------8-----8--11--------8-----8--11-----9--8--9--------9------9
D----------9-----9------------9-----9------------------------9-----9----
A-----------------------------------------------------------------------
E-----------------------------------------------------------------------


E-----------------------------------------------------------------------
B-----------------------------------------------------------------------
G---12--------9-----9--12-----14--12--11--9--9--------------------------
D----------9-----9---------------------------------12--11--12-----12----
A-----------------------------------------------------------------------
E-----------------------------------------------------------------------


E---------------|-------------------------------------------------------
B---------------|-------------------------------------------------------
G---11------11--|-------------------------------------------------------
D-------12------|-------------------------------------------------------
A---------------|-------------------------------------------------------
E---------------|-------------------------------------------------------


E-----------------------------------------------------------------------
B-----------------------------------------------------------------------
G---14p11------11------11--14-----16--14--12--11/14--12--11--12---------
D----------12------12---------------------------------------------------
A-----------------------------------------------------------------------
E-----------------------------------------------------------------------


E-----------------|-----------------------------------------------------
B-----------------|-----------------------------------------------------
G---12-----14-----|-----------------------------------------------------
D-----------------|-----------------------------------------------------
A-----------------|-----------------------------------------------------
E-----------------|-----------------------------------------------------


E-----------------------------------------------------------------------
B-----------------------------------------------------------------------
G---16--14--12--11--14--12--11--9--12--11--9--8--11--------9--8---------
D----------------------------------------------------------------9------
A-----------------------------------------------------------------------
E-----------------------------------------------------------------------


E---------|-----------------------------|-------------------------------
B---------|-----------------------------|-------------------------------
G---------|-----------------------------|-------------------------------
D---------|-----------------------------|-------------------------------
A---------|-----------------------------|-------------------------------
E---------|--------7--8--7--5--3--2--0--|-------------------------------


    Begin Strumming...
E------0-------------------------------------|-------------------------
B------0-------------------------------------|-------------------------
G------0-------------------------------------|-------------------------
D------2-------------------------------------|-------------------------
A------2-------------------------------------|-------------------------
E------0-------------------------------------|-------------------------


       Em 'Que bonitos ojos...'            Am
E------0-----------------------------------0-----|----------------------
B------0-----------------------------------1-----|----------------------
G------0-----------------------------------2-----|----------------------
D------2-----------------------------------2-----|----------------------
A------2-----------------------------------0-----|----------------------
E------0-----------------------------------------|----------------------


                      D                          B7
E---------------------2--------------------------2----------------------
B---------------------3--------------------------0----------------------
G---------------------2--------------------------2----------------------
D---------------------0--------------------------1----------------------
A------------------------------------------------2--------------0-------
E------------------------------------------------------------------3----


                Em 'Ellos me quieren mirar...'               Am
E---------|-----0--------------------------------------------0-----|----
B---------|-----0--------------------------------------------1-----|----
G---------|-----0--------------------------------------------2-----|----
D---------|-----2--------------------------------------------2-----|----
A---------|-----2--------------------------------------------0-----|----
E---2--0--|-----0--------------------------------------------------|----


                      D                          B7
E---------------------2--------------------------2--------|-------------
B---------------------3--------------------------0--------|-------------
G---------------------2--------------------------2--------|-------------
D---------------------0--------------------------1--------|-------------
A------------------------------------------------2--------|-------------
E---------------------------------------------------------|-------------


       B7 'Malaguena....          Em 'Salerosa..'
E------2--------------------|-----0-----------------------|-------------
B------0--------------------|-----0-----------------------|-------------
G------2--------------------|-----0-----------------------|-------------
D------1--------------------|-----2-----------------------|-------------
A------2--------------------|-----2-----------------------|-------------
E---------------------------|-----0-----------------------|-------------


    Besar tus labios quisiera...           D
E------------------------------------------2----------------------------
B------------------------------------------3----------------------------
G------------------------------------------2----------------------------
D------------------------------------------0----------------------------
A-----------------------------------------------------------------------
E-----------------------------------------------------------------------


          G                    B7
E---------3--------------|-----2--------------------|-------------------
B---------3--------------|-----0--------------------|-------------------
G---------0--------------|-----2--------------------|-------------------
D---------0--------------|-----1--------------------|-------------------
A---------2--------------|-----2--------------------|-------------------
E---------3--------------|--------------------------|-------------------


       B7
E------2-----------------|----------------------------------------------
B------0-----------------|----------------------------------------------
G------2-----------------|----------------------------------------------
D------1-----------------|----------------------------------------------
A------2-----------------|----------------------------------------------
E------------------------|----------------------------------------------


       Em
E------0-----------------------------------------------------|----------
B------0-----------------------------------------------------|----------
G------0-----------------------------------------------------|----------
D------2-----------------------------------------------------|----------
A------2-----------------------------------------------------|----------
E------0-----------------------------------------------------|----------


                            Em    'Que eres lin....
E------------------------------0----------------------------------------
B------------------------------0----------------------------------------
G------------------------------0----------------------------------------
D------------------------------2----------------------------------------
A------------------------------2----------------------------------------
E------------------------------0----------------------------------------


E---|-------------------------------------------------------------------
B---|-------------------------------------------------------------------
G---|-------------------------------------------------------------------
D---|-------------------------------------------------------------------
A---|-------------------------------------------------------------------
E---|-------------------------------------------------------------------


    '..da y hechicera...       D                                G
E------------------------------2--------------------------------3-------
B------------------------------3--------------------------------3-------
G------------------------------2--------------------------------0-------
D------------------------------0--------------------------------0-------
A---------------------------------------------------------------2-------
E---------------------------------------------------------------3-------


                   B7
E------------|-----2-----------|--r-----------------|-------------------
B------------|-----0-----------|--e-----------------|-------------------
G------------|-----2-----------|--s--------8-----8--|-------------------
D------------|-----1-----------|--t-----9-----9-----|-------------------
A------------|-----2-----------|--------------------|-------------------
E------------|-----------------|--------------------|-------------------


E-----------------------------------------------------------------------
B-----------------------------------------------------------------------
G---11--------8-----8--11--------8-----8--11-----9--8--9--------9-------
D----------9-----9------------9-----9------------------------9-----9----
A-----------------------------------------------------------------------
E-----------------------------------------------------------------------


E------|----------------------------------------------------------------
B------|----------------------------------------------------------------
G---9--|----------------------------------------------------------------
D------|----------------------------------------------------------------
A------|----------------------------------------------------------------
E------|----------------------------------------------------------------


E-----------------------------------------------------------------------
B-----------------------------------------------------------------------
G---12--------9-----9--12-----14--12--11--9--9--------------------------
D----------9-----9---------------------------------12--11--12-----12----
A-----------------------------------------------------------------------
E-----------------------------------------------------------------------


E---------------|-------------------------------------------------------
B---------------|-------------------------------------------------------
G---11------11--|-------------------------------------------------------
D-------12------|-------------------------------------------------------
A---------------|-------------------------------------------------------
E---------------|-------------------------------------------------------


E-----------------------------------------------------------------------
B-----------------------------------------------------------------------
G---14p11------11------11--14-----16--14--12--11/14--12--11--12---------
D----------12------12---------------------------------------------------
A-----------------------------------------------------------------------
E-----------------------------------------------------------------------


E-----------------|-----------------------------------------------------
B-----------------|-----------------------------------------------------
G---12-----14-----|-----------------------------------------------------
D-----------------|-----------------------------------------------------
A-----------------|-----------------------------------------------------
E-----------------|-----------------------------------------------------


E-----------------------------------------------------------------------
B-----------------------------------------------------------------------
G---16--14--12--11--14--12--11--9--12--11--9--8--11--------9--8---------
D----------------------------------------------------------------9------
A-----------------------------------------------------------------------
E-----------------------------------------------------------------------


E----------11------11--|------------------------------------------------
B------12------12------|------------------------------------------------
G----------------------|------------------------------------------------
D----------------------|------------------------------------------------
A----------------------|------------------------------------------------
E----------------------|------------------------------------------------


E---14---------11------11--14---------11------11--14-----12--11--12-----
B----------12------12-------------12------12----------------------------
G-----------------------------------------------------------------------
D-----------------------------------------------------------------------
A-----------------------------------------------------------------------
E-----------------------------------------------------------------------


E-------------12------12--|---------------------------------------------
B---------12------12------|---------------------------------------------
G-------------------------|---------------------------------------------
D-------------------------|---------------------------------------------
A-------------------------|---------------------------------------------
E-------------------------|---------------------------------------------


E---15------12------12--15-----17--15--14--12--12-----------------------
B-------12------12---------------------------------15--14--15-----------
G-----------------------------------------------------------------------
D-----------------------------------------------------------------------
A-----------------------------------------------------------------------
E-----------------------------------------------------------------------


E-------14------14--|---------------------------------------------------
B---15------15------|---------------------------------------------------
G-------------------|---------------------------------------------------
D-------------------|---------------------------------------------------
A-------------------|---------------------------------------------------
E-------------------|---------------------------------------------------


E---17p14---------14------14--17-----19--17--15--14--17--15--14--15-----
B-------------15------15------------------------------------------------
G-----------------------------------------------------------------------
D-----------------------------------------------------------------------
A-----------------------------------------------------------------------
E-----------------------------------------------------------------------


E---------15--17-----|--------------------------------------------------
B--------------------|--------------------------------------------------
G--------------------|--------------------------------------------------
D--------------------|--------------------------------------------------
A--------------------|--------------------------------------------------
E--------------------|--------------------------------------------------


E---19--17--15--14--17--15--14--12--15--14--12--11--14--12--11----------
B---------------------------------------------------------------12------
G-----------------------------------------------------------------------
D-----------------------------------------------------------------------
A-----------------------------------------------------------------------
E-----------------------------------------------------------------------


E---------------------------------|-------------------------------------
B---------------------------------|-------------------------------------
G---------------------------------|-------------------------------------
D---------------------------------|-------------------------------------
A---------------------------------|-------------------------------------
E------------7--8--7--5--3--2--0--|-------------------------------------


    Begin Strumming...
E------0-----------r--------------------|-------------------------------
B------0-----------e--------------------|-------------------------------
G------0-----------s--------------------|-------------------------------
D------2-----------t--------------------|-------------------------------
A------2--------------------------------|-------------------------------
E------0--------------------------------|-------------------------------


    Repeat Verse Rhythm and Chords
E------------------------------------------------|----------------------
B------------------------------------------------|----------------------
G------------------------------------------------|----------------------
D------------------------------------------------|----------------------
A------------------------------------------------|----------------------
E------------------------------------------------|----------------------


       Harmony to Intro and middle solo
E-----------------------------------------------------------------------
B---------------7-----7--10-----7-----7--10-----7-----7--10--8--7--8----
G------------8-----8---------8-----8---------8-----8--------------------
D-----------------------------------------------------------------------
A-----------------------------------------------------------------------
E-----------------------------------------------------------------------


E---------------------|-------------------------------------------------
B------------8-----8--|-------------------------------------------------
G---------9-----9-----|-------------------------------------------------
D---------------------|-------------------------------------------------
A---------------------|-------------------------------------------------
E---------------------|-------------------------------------------------


E-----------------------------------------------------------------------
B---12-----8-----8--12-----13--12--10--8--8-----------------------------
G-------9-----9---------------------------------11--10--11--------11----
D-----------------------------------------------------------------------
A-----------------------------------------------------------------------
E-----------------------------------------------------------------------


E------------------|----------------------------------------------------
B---10------10-----|----------------------------------------------------
G-------11---------|----------------------------------------------------
D------------------|----------------------------------------------------
A------------------|----------------------------------------------------
E------------------|----------------------------------------------------


E-----------------------------------------------------------------------
B---13p10------10------10--13-----15--13--12--10--13--12--10--12--------
G----------11------11---------------------------------------------------
D-----------------------------------------------------------------------
A-----------------------------------------------------------------------
E-----------------------------------------------------------------------


E-----------------|-----------------------------------------------------
B------12--13-----|-----------------------------------------------------
G-----------------|-----------------------------------------------------
D-----------------|-----------------------------------------------------
A-----------------|-----------------------------------------------------
E-----------------|-----------------------------------------------------


E-------------------------------------------------------------|---------
B---15--13--12--10--13--12--10--8--12--10--8--7--10--8--7-----|---------
G----------------------------------------------------------8--|---------
D-------------------------------------------------------------|---------
A-------------------------------------------------------------|---------
E-------------------------------------------------------------|---------


E-------------14------14--17------14------14--17------14------14--17----
B---------16------16----------16------16----------16------16------------
G-----------------------------------------------------------------------
D-----------------------------------------------------------------------
A-----------------------------------------------------------------------
E-----------------------------------------------------------------------


E---15--14--15---------15------15--19---------15------15--19--20--19----
B------------------17------17-------------17------17--------------------
G-----------------------------------------------------------------------
D-----------------------------------------------------------------------
A-----------------------------------------------------------------------
E-----------------------------------------------------------------------


E---17--15--15------------------------17------17--|---------------------
B------------------19--18--19-----19------19------|---------------------
G-------------------------------------------------|---------------------
D-------------------------------------------------|---------------------
A-------------------------------------------------|---------------------
E-------------------------------------------------|---------------------


E---20p17------17------17--20-----22--20--19--17--20--19--17--19--------
B----------19------19---------------------------------------------------
G-----------------------------------------------------------------------
D-----------------------------------------------------------------------
A-----------------------------------------------------------------------
E-----------------------------------------------------------------------


E------19--20-----|-----------------------------------------------------
B-----------------|-----------------------------------------------------
G-----------------|-----------------------------------------------------
D-----------------|-----------------------------------------------------
A-----------------|-----------------------------------------------------
E-----------------|-----------------------------------------------------


E---22--20--19--17--20--19--17--15--19--17--15--14--17--15--14----------
B---------------------------------------------------------------16------
G-----------------------------------------------------------------------
D-----------------------------------------------------------------------
A-----------------------------------------------------------------------
E-----------------------------------------------------------------------


========================================================================
==                       TABLATURE EXPLANATION                        ==
========================================================================
----------                ----------                ----t---
----5h8--- Hammeron       ----(8)--- Ghost          ----6--- Tap
----------                ---------- Note           --------
----5p8--- Pulloff        ----------                --------
----------                ----------                -----p--
----5/8--- Slide Up       -----x---- Dead           -----7-- Pop
----------                ---------- Note           --s-----
----5\8--- Slide Down     ----------                --5----- Slap
----------                ||------|| Repeat         --------
----5~~~-- Vibrato        ||*----*||                ---5^--- Bend
----------                ||*----*||                --------
----------                ||------||                --------
----------                ----------                --------
-4:------- Time           ----------                --------
-4:------- Signature      ----------                --------
----------                ----------                --------
Rhythm:
  w = whole note            W = dotted whole
  h = half note             H = dotted half
  q = quarter note          Q = dotted quarter
  e = eighth note           E = dotted eighth
  s = sixteenth note        S = dotted sixteenth
  t = 32nd note             T = dotted 32nd
  x = 64th note             X = dotted 64th
  ^ = triplet
Suggest correction
Give kudos to tab author, rate the tab!
1 2 3 4 5
comments
print report bad tab
guest
You may want to rate the tab now too:
select rating
Wanna post a correction for this tab? Suggest correction