Oops, an error
Loading. Please wait.

La Balada Del Pistolero Tab

260 views 3 this week
no commentswrite comment
1 2 3 4 5
3 more votes to show rating
add to favorites
launch autoscroll
font size
0
reset
how to read this tab
guitar tuner
×
Best way to learn
"La Balada Del Pistolero"
Autoscroll
slow
fast
+/-
esc
set tempo
stop
E-------7-7-7-7-8-7-7---8-7-7------|-----5-5-5-5-7-5-5-5-7-5-5------|
B-----8-8-8-8-8-8-8-8-8-8-8-8-8-10-|-----7-7-7-7-7-7-7-7-7-7-7-7-8--|
G---9-----------------9-------9-11-|---7-----------------------8-9--|
D-9--------------------------------|-7------------------------------|
A----------------------------------|--------------------------------|
E----------------------------------|--------------------------------|

Verso 1:
Em                                           B
Soy un hombre muy honrado, Que me gusta lo mejor
                                              Em
A mujeres no me faltan, Ni al dinero, ni el amor.

Verso 2:
Em                                     B
Jineteando En mi caballo, Por la sierra yo me voy
                                               Em
Las estrellas y la luna, Ellas me dicen donde voy.

Coro:
Am           Em
Ay, ay, ay, ay
B            Em
Ay, ay, mi amor
Am         Em
Ay, mi morena
B          Em
De mi corazón

E-------7-7-7-7-8-7-7---8-7-7------|-----5-5-5-5-7-5-5-5-7-5-5------|
B-----8-8-8-8-8-8-8-8-8-8-8-8-8-10-|-----7-7-7-7-7-7-7-7-7-7-7-7-8--|
G---9-----------------9-------9-11-|---7-----------------------8-9--|
D-9--------------------------------|-7------------------------------|
A----------------------------------|--------------------------------|
E----------------------------------|--------------------------------|

Verso 3:
Em                                           B
Me gusta tocar guitarra, me gusta cantar el son
                                          Em
Mariachi me acompaña, cuando canto mi canción.

Verso 4:
Em                                             B
Me gusta tomar mis copas, aguardiente es lo mejor
                                               Em
También la tequilla blanca, con cu sal le da sabor.

Coro:
Am           Em
Ay, ay, ay, ay
B            Em
Ay, ay, mi amor
Am         Em
Ay, mi morena
B          Em
De mi corazón

e|-----12-------11-------11-------12-------12-------11-|---11-----12-
B|-12-12-12-12-12-12-12-12-12-12-12-12-12-12-12-12-12--|--12--12-12--
G|--11----11-11----11-11----11-11----11-11----11-11----|-11--11-11---
D|-------------------------------------------------------------------
A|-------------------------------------------------------------------
E|-------------------------------------------------------------------

e|---12--12---10--10-9--9-7-7-5-5-3-3-2-2-0-0---------|
B|--12--12---12-12----10---9---7---5---3---0-3-0-3-1-0|
G|-11--11---11----------------------------------------|
D|----------------------------------------------------|
A|----------------------------------------------------|
E|----------------------------------------------------|

e|---------------|------0-2-----0-2-3-------0-2---7-5-3-2-0-|
B|-0---0---------|-0-0-4-----0-0-------0-0-4----------------|
G|--0---2-0------|------------------------------------------|
D|---2---1-2-----|------------------------------------------|
A|----2---2-2----|------------------------------------------|
E|------------0--|------------------------------------------|

Verso 5:
N.C.
Me gusta tocar guitarra, me gusta cantar el sol
                                          Em
Mariachi me acompaña, cuando canto mi canción.

Verso 6:
Em                                             B
Me gusta tomar mis copas, aguardiente es lo mejor
                                               Em
También la tequilla blanca, con su sal le da sabor.

Coro:
Am           Em
Ay, ay, ay, ay
B            Em
Ay, ay, mi amor
Am         Em
Ay, mi morena
B          Em
De mi corazón
Am           Em
Ay, ay, ay, ay
B            Em
Ay, ay, mi amor
Am         Em
Ay, mi morena
B          Em
De mi corazón
Suggest correction
Give kudos to tab author, rate the tab!
1 2 3 4 5
comments
print report bad tab
guest
You may want to rate the tab now too:
select rating
Wanna post a correction for this tab? Suggest correction