Oops, an error
Loading. Please wait.

La Bella Y La Bestia Tab

106 views 3 this week
no commentswrite comment
1 2 3 4 5
3 more votes to show rating
add to favorites
launch autoscroll
font size
0
reset
how to read this tab
guitar tuner
Autoscroll
slow
fast
+/-
esc
set tempo
stop
Help us to improve Ultimate-Guitar.com Take our survey!
×
Intro:

   F                    Bb         F                   Bb
e:------------1--1-1----5-6-3-5-1------------1--1-1----5-6-3-5-1--|
B:----------1------------------------------1----------------------|
G:--------2----------3-------------------2----------3-------------|
D:------3------------------------------3--------------------------|
A:----3------------------------------3----------------------------|
E:--1------------------------------1------------------------------|

F             Bb
Se oye una canción,  e:--5-6-3-5-1--|
F              Bb
 que hace suspirar   e:--5-6-3-5-1--|
F               Am             Bb
y habla al corazón de una sensación
             C
grande como el mar.
D               G
Algo entre los dos   e:--10-9-5-0-2--|
 D           G
cambia sin querer
              Bm                G
nace una ilusión tiemblan de emoción
                D
Bella y Bestia son.   e:--2-3-0-2----|
                      B:----------3--|

                A
Hoy igual que ayer    e:--10-9-7-5--|
Bm           A  Bm
pero nunca igual
                 A              Bm
siempre al arriesgar puedes acertar
               Em
tu elección final.
A             D  G  D  G  Bm  G  A
uoh, uoh,uohooooo

e:----5-9-10---|-----5-----|---5-9-10-12----14-10-|-10-10-12-14-15-17-
B:--7--------8-|-5-7---5-7-|-7--------------------|-------------------

e:-----TERCERA-GUITARRA----|-------------10-12-14-12-14-10-|---
B:--(ENCIMA DE LA SEGUNDA)-|-------------------------------|---

Uooooo  E:--10-10-12-14-15-17--


G           A
Debes aprender, e:--10-9-----|
                B:-------10--|
Bm          A  Bm
  dice la canción
                 A                 Bm
que antes de juzgar, tienes que llegar
              Em
hasta el corazón.
Em              G
uoh, uoh, uohooooooo


G           C
Debes aprender,   e:--15-14-----------|
                  B:--------15--------|
                  G:-----------14-16--|
G            C
dice [ch]A canción   E[/ch]:--15-14-----------|
                  B:--------15-13-12--1

  G               Bm                C
que antes de juzgar, tienes que llegar
               D
hasta el corazón. e:--15-14-----------|
                  B:--------15-13-12--|


E               A   E!              A!  E!           A!
Cierto como el sol (cierto como el sol) que nos da calor
B                C#m             B
No hay mayor verdad la bellaza está
           E
en el corazón.    e:--------7----
                  B:--9-7-9------
                  G:----------9--

B              C#m                B
Nace una ilusión, tiemblan de emoción
                E
Bella y Bestia son.

                                           Uo uoooo
e:--------7---|-12-11---------|-------7---|-12-11---------|
B:----7-9-----|-------12-10-9-|---7-9-----|-------12-10-9-|
G:--9-------9-|---------------|-9-------9-|---------------|

                                 uuuu
e:-------------|-------------|-------------|
B:--------7----|--------7----|--------7----|
G:--9-8-9---9--|--9-8-9---9--|--9-8-9---9--|

B                E
Bella y bestia son


Esta es una bella canción que con ayuda de otras dos guitarras
queda fabulosa.
Los acordes que aparecen con ?!? (E!) y (A!) son para la tercera guitarra.

La primera guitarra se encarga de llevar el ritmo y marcar los
Acordes. Es muy difícil que suene igual, aconsejaría rasgar sutilmente
y dejar el arpegio para una tercera guitarra.
La segunda guitarra se encarga de todos los punteos.
La tercera guitarra se encarga de todos los acordes, a la vez
que la primera pero con un arpegio. Es bastante complicado,
es mejor utilizar uno como este:
e:------------*-*----|
B:----------*--------|
G:--------*-------*--|  adaptándolo al acorde apropiado
D:------*------------|
A:----*--------------|
E:--*----------------|


Yei, me ha costado un poco sacarlo... pero está bien,
aunque los acordes son los mismos que ya estaban en la página.
Un saludo.
Suggest correction
Give kudos to tab author, rate the tab!
1 2 3 4 5
comments
print report bad tab
guest
You may want to rate the tab now too:
select rating
Wanna post a correction for this tab? Suggest correction