Oops, an error
Loading. Please wait.

La Pantera Rosa Bass

223 views 1 this week
no commentswrite comment
1 2 3 4 5
3 more votes to show rating
add to favorites
launch autoscroll
font size
0
reset
guitar tuner
×
Best way to learn
"La Pantera Rosa"
Autoscroll
slow
fast
+/-
esc
set tempo
stop
G-----------|------------|
D-----------|------------|
A-4-5-6-7---|-4-5-6-7----|
E--------7-0|--------7-0-|

G---------------|-----------------------|
D---------------|---------10-9------9-8-|
A-4-5-6-7--9-10-|-6s7-9-10-----7-10-----|
E---------------|-----------------------|

G----------|---------------|------------------9-8|
D-7-5------|---------------|---------10-9--------|
A----7-5-7-|-4-5-6-7--9-10-|-6s7-9-10-----7-10---|
E----------|---------------|---------------------|

G-9-7------------------------|---------|--------|
D----9-7-5---8s7-8s7-8s7-8s7-|-5-------|-5------|
A----------7-----------------|---7-5-7-|--7-5-7-|
E----------------------------|---------|--------|

bueno espero que les sirva
Suggest correction
Give kudos to tab author, rate the tab!
1 2 3 4 5
comments
print report bad tab
guest
You may want to rate the tab now too:
select rating
Wanna post a correction for this tab? Suggest correction