Oops, an error
Loading. Please wait.

La Pantera Rosa Tab

version 1
version 1

Whole song

365 views 1 this week
no commentswrite comment
1 2 3 4 5
3 more votes to show rating
add to favorites
launch autoscroll
font size
0
reset
how to read this tab
guitar tuner
×
Best way to learn
"La Pantera Rosa"
Autoscroll
slow
fast
+/-
esc
set tempo
stop
E-------------------------------------------------------------------------
B-------------------------------------------------------------3-4---6-7---
G-------------------------------------------------------------------------
D--x-x---6-7--8-9------6-7--8-9------8-7--6-5------6-7--8-9---------------
A--x-x---4-5--6-7------4-5--6-7------6-5--4-3------4-5--6-7---------------
D-------------------------------------------------------------------------

E-------------------------8-7-----7-6------5-3----------------------------
B--3-4----6-7---3-4-6-7-------4-7--------------5-3-4--(4)-----------------
G-------------------------------------------------------------------------
D-------------------------------------------------------------------------
A-------------------------------------------------------------------------
D-------------------------------------------------------------------------

E------------------------8-7------7-12-11---------------------------------
B--3-4----6-7---3-4-6-7-------4-7-----------------------------------------
G-------------------------------------------------------------------------
D-------------------------------------------------------------------------
A-------------------------------------------------------------------------
D-------------------------------------------------------------------------

E-------------------------8-7-----7-6------5-3----------------------------
B--3-4----6-7---3-4-6-7-------4-7--------------4-2-4----------------------
G-------------------------------------------------------------------------
D-------------------------------------------------------------------------
A-------------------------------------------------------------------------
D-------------------------------------------------------------------------

E-12-10-------------------------------------------------------------------
B-------12-10---------11-1O--11-10--11-10---------------------------------
G-------------12-9--------------------------12-9----9--9------------------
D------------------------------------------------12-----------------------
A-------------------------------------------------------------------------
D-------------------------------------------------------------------------

E-----------------2-------------------------------------------------------
B-----------------4-------------------------------------------------------
G--12-9----9--9---4-------------------------------------------------------
D-------12--------5-------------------------------------------------------
A-------------------------------------------------------------------------
D-------------------------------------------------------------------------
Suggest correction
Give kudos to tab author, rate the tab!
1 2 3 4 5
comments
print report bad tab
guest
You may want to rate the tab now too:
select rating
Wanna post a correction for this tab? Suggest correction