Oops, an error
Loading. Please wait.

La Pantera Rosa Tab

version 2
version 2

Whole song

129 views 3 this week
no commentswrite comment
1 2 3 4 5
3 more votes to show rating
add to favorites
launch autoscroll
font size
0
reset
how to read this tab
guitar tuner
×
Best way to learn
"La Pantera Rosa"
Autoscroll
slow
fast
+/-
esc
set tempo
stop
1/--------------------|----|---------------|
2/--------------------|----|---------------|
3/--------------------|-3x-|---------------|
4/-6/7-8/9------------|----|--9/8-7/6------|
5/-4/5-6/7------------|----|--7/6-5/4---3--|
6/---------0-7-7-0-0--|----|----------3----|


1/---------------------8-7-----7-6--|-5-3-----------|----|
2/---------7-8-----7-8-----7-8------|-----5-3-3/5-5-|----|
3/-------------8-9------------------|---------------|-2x-|
4/-6/7-8/9--------------------------|---------------|----|
5/-4/5-6/7--------------------------|---------------|----|
6/----------------------------------|---------------|----|


1/---------------------8-7-----12-11-|
2/---------7-8-----7-8-----7-8-------|
3/-------------8-9-------------------|
4/-6/7-8/9---------------------------|
5/-4/5-6/7---------------------------|
6/-----------------------------------|


1/---------10/12-10----------------------------------------------------|
2/------------------12-10------10/11/10--10/11/10--10/11/10--10/11/10--|
3/------------------------12-9-----------------------------------------|
4/-6/7-8/9-------------------------------------------------------------|
5/-4/5-6/7-------------------------------------------------------------|
6/---------------------------------------------------------------------|

1/-----------|----|
2/-8---------|----|
3/---9-7-9-9-|-2x-|
4/-----------|----|
5/-----------|----|
6/-----------|----|
Suggest correction
Give kudos to tab author, rate the tab!
1 2 3 4 5
comments
print report bad tab
guest
You may want to rate the tab now too:
select rating
Wanna post a correction for this tab? Suggest correction