Oops, an error
Loading. Please wait.

La Pantera Rosa Tab

version 3
version 3

Whole song

96 views 1 this week
no commentswrite comment
1 2 3 4 5
3 more votes to show rating
add to favorites
launch autoscroll
font size
0
reset
how to read this tab
guitar tuner
Autoscroll
slow
fast
+/-
esc
set tempo
stop
Help us to improve Ultimate-Guitar.com Take our survey!
×
1------/------------------------/-----------------
2------/------------------------/-----------------
3------/------------------------/-----------------
4------/------------------------/------------3--2--------2
5------/----0-------2--3--------/---0--2--3--------0--3---
6--0---/----------------------0-/------------------


1-----------------------/------------------------
2-----------------------/------------------------
3-----------------------/------------------------
4-1-------0-------------/-------------------------
5------------3-0----0---/---0---------------------
6----------------3------/---------------0---------


1-------------------------/----------------------
2-------------------------/----------------------
3-------------------------/-----------------------2
4-------------------------/-----------3--2-----2----
5--0--------2---3---------/--0--2--3--------3-------
6----------------------0--/-----------------------

1--------/------------/----------------------------
2--------/------------/----------------------------
3--1-----/------------/----------------------------
4--------/------------/----------------------------
5--------/------------/---0-----2---3--------------
6--------/--------0---/---------------------0------


1---------------------------/-----------------------
2---------------------------/-----------------------
3---------------------------/------------------------
4-----------3---2--------2--/--1--------0------------
5--0--2--3---------0--3-----/--------------3--0----0-
6---------------------------/--------------------3---


1-------------------------/----------------------
2-------------------------/----------------------
3------2--0---------------/----------------------
4------------2--0---------/---0----0---0---0-----
5--0---------------3--0---/----------------------
6-------------------------/----------------------


1--------------------------------------------------
2--------------------------------------------------
3--------------------------------------------------
4--------------------------------------------------
5---3---0------0---0----0--------------------------
6-----------3---------------------0----------------


        jomecho@
Suggest correction
Give kudos to tab author, rate the tab!
1 2 3 4 5
comments
print report bad tab
guest
You may want to rate the tab now too:
select rating
Wanna post a correction for this tab? Suggest correction