Oops, an error
Loading. Please wait.

Los Chicos Del Coro Chords

124 views 3 this week
no commentswrite comment
1 2 3 4 5
3 more votes to show rating
add to favorites
launch autoscroll
font size
0
reset
transpose
0
reset
simplify chords
display chords
guitar tuner
Autoscroll
slow
fast
+/-
esc
set tempo
stop
Help us to improve Ultimate-Guitar.com Take our survey!
×
Los Coristas de Bruno Colais.
Esta es una canción hermosa del francés antes mencionado y que
me tomé el atrevimiento personal de traducir al español y llevarla a guitarra.

La tablatura es sólo para soprano. Cualquier duda pueden dirigirse a mi correo
y en caso de querer una partitura también la realicé
con fines de hacer conocer la canción en versión española:
rubenpablo1@

Melodía de Soprano


M|-----------------|----------------------|--------------------|
B|----2-2-2--------|----------------------|--------------------|
G|-------------0---|----0-0-0-------0-2---|------------0-------|
D|----------3------|---------2-3-3--------|--3-3-3-0-2--3-2--0-|
A|-----------------|----------------------|--------------------|
G|-----------------|----------------------|--------------------|

M|----------------|------|--------------|-----------|------------|
B|----------------|------|--------------|-----------|------------|
G|--2-------------|------|-------0------|----0------|------0-----|
D|---3-2-0--2-----|-0----|--0-0----3-2--|--0--3-2---|-0-0----3-2-|
A|------------4---|------|--------------|-----------|------------|
G|----------------|------|--------------|-----------|------------|


M|-----------------|-------------||
B|-----------------|-------------||
G|--2--------------|------------.||
D|-----0--2-0------|----0-------.||
A|-------------4---|-------------||
G|-----------------|-------------||


Dm          Gm
Mira el camino

A                     Dm
niños pobres, descarriados

Gm          A
Dales tu mano

              Dm
conducidos en amor


    A7    Dm
A  otras mañanas

Gm          A
Dales tu mano

               Dm
conducidos en amor


   A7   Dm
a otras mañanas


Dm      Gm   Bb   Am7
Siente en tu corazón

          Dm
la esperanza

 Bb            F
ardor de la vida

Am      Dm
voz de gloria

Bb              F
ardor de la vida

Bb      F
De la vida

Am       Dm
voz de gloria  bis


Dm             Gm
Sueños de infancia

A               Dm
olvidados y anulados

Gm           A
Una luz brilla

           Dm
brilla sin fin

Dm             Gm
Sueños de infancia

A                Dm
olvidados y anulados

Gm         A
Una luz brilla

          Dm
brilla sin fin

         A7       Dm
al principio del camino

A                Dm
olvidados y anulados

Gm          A
Una luz brilla

         Dm
Brilla sin fin

Siente en tu corazón
A esperanza
ardor de la vida
voz de gloria
ardor de la vida
De la vida
voz de gloria
voz de gloria
Suggest correction
Give kudos to tab author, rate the tab!
1 2 3 4 5
comments
print report bad tab
guest
You may want to rate the tab now too:
select rating
Wanna post a correction for this tab? Suggest correction