Oops, an error
Loading. Please wait.

Los Hombres De Paco - Me Gusta Así Tab

19 views 1 this week
no commentswrite comment
1 2 3 4 5
3 more votes to show rating
add to favorites
×
Save as Personal and add changes to this tab that will be seen only by you. Learn more ›
×
You can save this tab as Personal to edit and correct it or add notes. All changes will be seen only by you. Learn more »
save as personal
new!
launch autoscroll
font size
0
reset
how to read this tab
guitar tuner
Autoscroll
slow
fast
+/-
esc
set tempo
stop
hola¡es mi primera transcipcion y
bueno creo que asi suene mas o menos bien...
      E             B               C#m            A       B
E-----------0--------------2----------------4-----------------------------
B-----------0--------------4----------------5-----------------------------
G-----------1--------------4----------------6-----------------------------
D-------------------------------------------------------------------------
A------2--------------2----------------4-------------7--------9-----------
E---0--------------2----------------4-------------5-------7---------------


     E             B               C#m            A       B        A
E------------0-------------2----------------4----------------------5------
B------------0-------------4----------------5----------------------5------
G------------1-------------4----------------6----------------------6------
D------------------------------------------------------------------7------
A-------2-------------2----------------4--------------7------9------------
E---0--------------2----------------4--------------5------7---------------


    E             B               C#m                   A
E-----------0--------------2-----------------4-----------------5--------
B-----------0--------------4---------------5---5---------------5--------
G-----------1--------------4-------------6-------6-------------6--------
D--------------------------------------6-----------6--------------------
A------2--------------2--------------4---------------------7------------
E---0--------------2-------------------------------------5--------------


     E             B
E -----------0--------------2--
B -----------0--------------4--
G -----------1--------------4--
D -----------------------------
A ------2--------------2-------
E ---0--------------2----------


Estribillo:

E                 B                 C#m       A
Di que todo ese tan solo es un vendaval y me haré cometa.

E                 B                 C#m       A           E/B/C#m/A
Di que todo esto tan solo es una canción y caeré rendida..ah, ah...ah..

----
Se repiten los mismos arpegios que antes mientras se canta esto:
(pongo solo los acordes para no volver a escribir toda la TAB de nuevo)
E          B            C#m            A
No se porque me gusta asi que nadie sepa lo que es,

E        B             C#m           A     B    A
saltandome las reglas voy a imaginarme un dia más.

          E             B      A      E          B            A
En el porche de cualquier motel y hacer cosquillas en tus pies.


Y se repite todo de nuevo...
Suggest correction
Give kudos to tab author, rate the tab!
1 2 3 4 5
comments
print report bad tab
guest
Wanna post a correction for this tab? Suggest correction