Oops, an error
Loading. Please wait.

Mision Imposible Tab

version 3
version 3

Whole song

181 views 3 this week
no commentswrite comment
1 2 3 4 5
3 more votes to show rating
add to favorites
launch autoscroll
font size
0
reset
how to read this tab
guitar tuner
×
Best way to learn
"Mision Imposible"
Autoscroll
slow
fast
+/-
esc
set tempo
stop
Esta es la de mision imposible!!! sta buenisima.... Saludos COMENTEEN!!


e---------------------------------------------------
B---------------------------------------1---1-------
G-----------------------------------------2--2------
D-------------------------------------------2--1--0-
A-------2-4--------------------2-4---------------3--
E-4-4-4------4-4-4--2-3--4-4-4-----4-4-4------------


e---------------------------------------------------
B---------------------------------------1---1-------
G-----------------------------------------2--2------
D-------------------------------------------2--1--0-
A-------2-4--------------------2-4---------------3--
E-4-4-4------4-4-4--2-3--4-4-4-----4-4-4------------
Suggest correction
Give kudos to tab author, rate the tab!
1 2 3 4 5
comments
print report bad tab
guest
You may want to rate the tab now too:
select rating
Wanna post a correction for this tab? Suggest correction