Oops, an error
Loading. Please wait.

Nana De Bella - Crepúsculo Tab

version 2
version 2

Whole song

82 views 1 this week
no commentswrite comment
1 2 3 4 5
3 more votes to show rating
add to favorites
launch autoscroll
font size
0
reset
how to read this tab
guitar tuner
Autoscroll
slow
fast
+/-
esc
set tempo
stop
Help us to improve Ultimate-Guitar.com Take our survey!
×
E|---------------------------------------------------|
B|10-9-10-9-10-9--3-2-3-5-----------2-----2-3-5?3-2--|
G|--------------9--------1-2-1?1-2<4-----4---------4-|
D|---------------------------------------------------|
A|---------------------------------------------------|
E|---------------------------------------------------|

E|-----------------------------------------------------------|
B|10-9-10-9-10-9--3-2-3-5-14-12?14-12-10-9-----2--2-3-5?3-2--|
G|--------------9-------------------------1-2<4--4---------4-|
D|-----------------------------------------------------------|
A|-----------------------------------------------------------|
E|-----------------------------------------------------------|

E|--------------------------------------------------9-10-12-9--------|
B|10-12-10-9-10-9--10-12-10-9-10-9--10-12-10-9-10-12---------12-10-9-|
G|---------------9----------------9----------------------------------|
D|-------------------------------------------------------------------|
A|-------------------------------------------------------------------|
E|-------------------------------------------------------------------|
Suggest correction
Give kudos to tab author, rate the tab!
1 2 3 4 5
comments
print report bad tab
guest
You may want to rate the tab now too:
select rating
Wanna post a correction for this tab? Suggest correction