Oops, an error
Loading. Please wait.

Once Upon A Time In Mexico Tab

352 views 1 this week
no commentswrite comment
1 2 3 4 5
3 more votes to show rating
add to favorites
launch autoscroll
font size
0
reset
how to read this tab
guitar tuner
Autoscroll
slow
fast
+/-
esc
set tempo
stop
Help us to improve Ultimate-Guitar.com Take our survey!
×
Soundtrack-El mariachi
tabulado/by:Dante Alanya Molina


esta primera transcripción espero que les guste...cualquier
 datito contaktarme a: dante_almo@

----------3-2---------------3-2---------2--
--1---5--3---5-----------------5------3----
-2-4-2--4-------4-4-4-2-2-2---------4------
-------------------------------------------
-------------------------------------------
-------------------------------------------

----------------------------------------
-------7-8-8/12--------------5--0-------
--9-9-9---------------7-5-4-5-----------
----------------------------------------
----------------0-0---------------------
----------------------------------------


------------------------------------------
--------5-0-0---5-7-8-7/8-8---10-10/12-10-
-7-5-4-5----------------------------------
------------------------------------------
------------------------------------------
------------------------------------------

--------------------------10-10/12--------
--12-12/13-12-13-13/15-13-----------------
------------------------------------------
------------------------------------------
------------------------------------------
------------------------------------------


                00:26
----------------------5-5/7---------5-7-7--
-5-7-7/8-7-5----5-7-8---------5-7-8--------
------------5------------------------------
-------------------------------------------
-------------------------------------------
-------------------------------------------


-7h8-5-7-7-----------------------------------
-------------5-5-5-5/4-5-5-5/7-7-7-0---------
---------------------------------------------
---------------------------------------------
---------------------------------------------
---------------------------------------------


"7" despacio
                00:38
--------------------------------------------------
-7/8-7-5-7-5----7-8-8-10-10/12--7-8-8-10-10/12----
----------------------------------------------"7"-
--------------------------------------------------
--------------------------------------------------
--------------------------------------------------


----------------------(12-12)-------------
-7-8-8-10-10/12-13-12---------------------
-------------------------------"----------
------------------------------(9)---------
------------------------------------------
------------------------------------------


                          00:54
---------------------------------------------
-7-8-10/12-12---5---------7/8-8-10-10/12---7-
---------------4--2-4------------------------
---------------------------------------------
---------------------------------------------
---------------------------------------------


-----------------------------------------------
-----8-7--------------5--7-8-------------------
-9-11----9-11-9---0-4--------9-----------------
-----------------------------------------------
-----------------------------------------------
-----------------------------------------------


---12-12-12---10-10-10/8--8-8/7-7--------------
-------------11--------------------5----7-8-7--
-9-----------------------------------4---------
-----------------------------------------------
-----------------------------------------------
-----------------------------------------------


---------------------------------------------
-7h8-5---5---7-8-5-------5---7-8-5-----------
----------4------------5---------------------
---------------------7-----------------------
---------------------------------------------
---------------------------------------------


DE ICA PAL MUNDO
ICA-PERÚ
Suggest correction
Give kudos to tab author, rate the tab!
1 2 3 4 5
comments
print report bad tab
guest
You may want to rate the tab now too:
select rating
Wanna post a correction for this tab? Suggest correction