Oops, an error
Loading. Please wait.

Piratas Del Caribe Tab

version 2
version 2

Whole song

589 views 6 this week
no commentswrite comment
1 2 3 4 5
3 more votes to show rating
add to favorites
launch autoscroll
font size
0
reset
how to read this tab
guitar tuner
×
Best way to learn
"Piratas Del Caribe"
Autoscroll
slow
fast
+/-
esc
set tempo
stop
Bueno espero que les guste esta transcripción que he hecho de piratas
del caribe es la primera que hago así que espero no fallar mucho, abajo
les adjunto los acordes de la canción, están mas o menos en orden según
yo. Bueno disfruten y votad me gustaría que fuese la mejor de todas
gracias.
P.D: un saludo a mis alumnos, que aunque llevo poco dándoles clase
apenas 2 meses espero que le guste esta canción que me pidieron que les
enseñase.(sobretodo alberto y javi, que fuisteis los que la pidieron)


e|----------------------------------------------------------------------|
B|----------------------------------------------------------------------|
G|------------------------------------------------------------------7---|
D|------------------------------------------------------------------7---|
A|-7----7-7----7-7----7-7-7-7--7----7-7----7-7----7-7-7-7--7------------|
E|----------------------------------------------------------------------|


e|----------------------------------------------------------------------|
B|-------------------------5---6-6-----6--8---5-5-----------------------|
G|------5---7-7-----7---------------------------------7--5-5--7---------|
D|--7-------------------------------------------------------------------|
A|----------------------------------------------------------------------|
E|----------------------------------------------------------------------|


e|----------------------------------------------------------------------|
B|-------------------------5---6-6-----6--8---5-5-----------------------|
G|------5---7-7-----7---------------------------------7--5-5--7---------|
D|--7-------------------------------------------------------------------|
A|----------------------------------------------------------------------|
E|----------------------------------------------------------------------|


e|----------------------------------5-6-6-5------------5----------------|
B|---------------------6---8-8-8-------------------8--------------------|
G|------5---7-7-7--------------------------------------------7----------|
D|--7-------------------------------------------------------------------|
A|----------------------------------------------------------------------|
E|----------------------------------------------------------------------|


e|----------------------5-----------------------------------------------|
B|------5---6-6---8----------------6--5---5----6--------5---------------|
G|--7---------------------7-----7-------------------7-------------------|
D|----------------------------------------------------------------------|
A|----------------------------------------------------------------------|
E|----------------------------------------------------------------------|


e|-------------------------------------------5^1-----------6------------|
B|--5----------------------4-5---6-6-----8--------3----------6----------|
G|---------7-5---7--7---------------------------------2-----------------|
D|--------------------------------------------------------------8-------|
A|----------------------------------------------------------------------|
E|----------------------------------------------------------------------|


e|----------------------------------------------------------------------|
B|-------------------------10-10-10-11-10----8-8-8-8-10-----------------|
G|------7--- 10------------10-10-10-110------9-9-9-9--------------------|
D|--7---7----7----------------------------------------------------------|
A|----------------------------------------------------------------------|
E|----------------------------------------------------------------------|


e|-----------------------------------------------------------------------|
B|-10-10-10-11-10----8-6-5------------------8-10---8---------8-10---8---8|
G|-10-10-10-110------9-7-0----7----7-9--10-------------10-9-----------10-|
D|----------------------------7------------------------------------------|
A|-----------------------------------------------------------------------|
E|-----------------------------------------------------------------------|


e|----------------------------------------------------------------------|
B|-10--8----------------------------------------------8----8--10-8------|
G|-------10---9--10--9---7---9-5---7---7-9--10---9-10---10----------10--|
D|---------------------------------------------------------------------7|
A|----------------------------------------------------------------------|
E|----------------------------------------------------------------------|


                                           BIS->
e|----------------------------------------------------------------------|
B|-------------8-10--11---8----8------------10----11--------------------|
G|-7---7-9--10----------7---10---9--7--9-5---7-----8--------------------|
D|----------------------------------------------------------------------|
A|----------------------------------------------------------------------|
E|----------------------------------------------------------------------|


                                           <-BIS
e|----------------------------------------------------------------------|
B|-10--8-------8-----6-------5--6--5------3-----------------------------|
G|--7--5-------5-----3-------2--3--2------2-----------------------------|
D|----------------------------------------0-----------------------------|
A|----------------------------------------------------------------------|
E|----------------------------------------------------------------------|


e|-----------5---------6---------------------5-5-8---5---------------|
B|------6----------6---------------------6-------------8-------------|
G|----7----------7---------------------7-----------------------------|
D|--7----------7---------------------7-------------------------------|
A|----------------------------------------------------------------------|
E|----------------------------------------------------------------------|


e|----------------------------------------------------------------------|
B|-8----6----5--6--5------------6---------------------------------------|
G|-9----7----5--7--5---7------7---------7-------------------------------|
D|--------------------------7-------------------------------------------|
A|----------------------------------------------------------------------|
E|----------------------------------------------------------------------|


ACORDES


[ch]Dm--[ch]F----[ch]C---REm---FA----DO---REm--[ch]G---[ch]B---REm[/ch]--FA[/ch]----DO[/ch]---REm[/ch]---FA[/ch]
[ch]C---[ch]Dm---[ch]F---DO----REm---[ch]G--[ch]B---REm---FA---DO[/ch]---REm[/ch]---SI[/ch]---REm[/ch]---DO[/ch]
[ch]Dm--[ch]C----REm--DO----[ch]F----DO---FA---DO----REm--DO---FA----REm[/ch]--SI[/ch]----SOL[/ch]
[ch]C---[ch]Dm---[ch]F---DO----REm---FA[/ch]---DO[/ch]---REm[/ch]
Suggest correction
Give kudos to tab author, rate the tab!
1 2 3 4 5
comments
print report bad tab
guest
You may want to rate the tab now too:
select rating
Wanna post a correction for this tab? Suggest correction