Oops, an error
Loading. Please wait.

Piratas Del Caribe Tab

version 3
version 3

Whole song

1,825 views 33 this week
no commentswrite comment
1 2 3 4 5
1 last vote to show rating
add to favorites
×
Save as Personal and add changes to this tab that will be seen only by you. Learn more ›
×
You can save this tab as Personal to edit and correct it or add notes. All changes will be seen only by you. Learn more »
save as personal
new!
launch autoscroll
font size
0
reset
how to read this tab
guitar tuner
Autoscroll
slow
fast
+/-
esc
set tempo
stop
Aquí les traigo la canción de la película Piratas del caribe.
Es muy fácil.
Espero que les guste.

1.-----------------------------------------------------------
2.-----------5-6-6-6-8-5-5-----------------------------------
3.---5-7-7-7---------------7-5-7-----------------------------
4.-7---------------------------------------------------------
5.-----------------------------------------------------------
6.-----------------------------------------------------------x2

1.-------------------5-6-6---5-----------5-------------------
2.-----------6-8-8-8-------8-----5-6-6-6-------6-5-5---5-----
3.---5-7-7-7-------------------7-----------7-7-------7-------
4.-7---------------------------------------------------------
5.-----------------------------------------------------------
6.-----------------------------------------------------------

1.-----------------------------------------------------------
2.-----------5-6-6-6-8-5-5-----------------------------------
3.---5-7-7-7---------------7-5-7-----------------------------
4.-7---------------------------------------------------------
5.-----------------------------------------------------------
6.-----------------------------------------------------------x2

1.-------------------5-6-6---5-----------5-------------------
2.-----------6-8-8-8-------8-----5-6-6-6-------6-5-5---------
3.---5-7-7-7-------------------7-----------7-7-------7-5-7---
4.-7---------------------------------------------------------
5.-----------------------------------------------------------
6.-----------------------------------------------------------

Eso es todo, que les aya gustado y la hayan disfrutado.
Suggest correction
Give kudos to tab author, rate the tab!
1 2 3 4 5
comments
print report bad tab
guest
Wanna post a correction for this tab? Suggest correction