Oops, an error
Loading. Please wait.

Quiero Que Me Quieras Tab

19 views 1 this week
no commentswrite comment
1 2 3 4 5
3 more votes to show rating
add to favorites
launch autoscroll
font size
0
reset
how to read this tab
guitar tuner
×
Best way to learn
"Quiero Que Me Quieras"
Autoscroll
slow
fast
+/-
esc
set tempo
stop
Estas figuras no están arregladas para guitarra, están tal y como
se tocan en el disco el acordeón y el sax, por eso hay dos compases
muy difíciles de tocar, el primero y el antepenúltimo de la INTRO,
si no pueden tocarlos mejor sáltenlos, son las partes donde el
acordeón hace dieciseisavos u octavos en tresillo.
Lo demás está sencillo.
Ah, para los que no sepan la L en el tab significa ligadura, es decir
la nota anterior se extiende hasta la duración de la que está con L.
Además arriba hay marcas temporales: W-nota redonda, H-nota blanca,
Q-cuarto, E-octavo, S-dieciseisavo, y el |--3--| significa que las
notas debajo van en tresillo.
Es que no hago las tabs a mano, estoy probando el Guitar-Pro y
ese programa las hace así, yo creo que están mucho mejor que sin
marcas temporales, porque de esta forma ya casi es una partitura.

INTRO
0:00

                      |---3---|   |---3---|
     Q    S  S  S  S  E   E   E   E   E   E      W
E||------------14------------12--14--15--16--|--19----------------|
B||---------15----15-14--15------------------|--------------------|
G||------------------------------------------|--19----------------|
D||------------------------------------------|--------------------|
A||------------------------------------------|--------------------|
E||------------------------------------------|--------------------|


  H         H            W                   H.           Q
--L--------17--------|--15----------------|--L-----------------|
---------------------|--------------------|--------------------|
--L--------17--------|--16----------------|--L-----------------|
---------------------|--------------------|--------------------|
---------------------|--------------------|--------------------|
---------------------|--------------------|--------------------|


   W                   H         H           W
---7----------------|--L---------8--------|--7----------------|
---8----------------|--L--------10--------|--8----------------|
--------------------|------------7--------|--7----------------|
--10----------------|--L------------------|-------------------|
--------------------|---------------------|-------------------|
--------------------|---------------------|-------------------|


  Q    Q    Q    Q       E  E  E  E  E  E  E  E
------------3----5----|--------------7--7--7--7--|
-------7----5----7----|--8--8--8--8--------------|
-------7--------------|--------------------------|
----------------------|--------------------------|
----------------------|--------------------------|
----------------------|--------------------------|


   E   E   E   E   E   E   E   E         Q     Q    H
--10--10--10--10--12--12--12--15--|--10g12----10-------------|
----------------------------------|-----------10-------------|
----------------------------------|--------------------------|
----------------------------------|--------------------------|
----------------------------------|--------------------------|
----------------------------------|--------------------------|


  E   E   E   E   E  E   E   E      Q     E   E   E   E   E   E
--------------------------------|--------------------------------|
---------------------9--10--11--|--12----12--10--12--10--12--10--|
-----11--10--11--12-------------|--12----12--11--12--11--12--11--|
--------------------------------|--------------------------------|
--------------------------------|--------------------------------|
--------------------------------|--------------------------------|


  Q    E  E  E  E  E  E     W
-------------------------|-------------------|
--8----8--7--8--7--8--7--|--5----------------|
--9----9--7--9--7--9--7--|--5----------------|
-------------------------|-------------------|
-------------------------|-------------------|
-------------------------|-------------------|


              |--3--|  |--3--|
  E.  S S E.  E  E  E  E  E  E     Q.     E  E  E  E  E     W
-----------------------0--1--2--|--3---------3--3--3--3--|--3--||
------3-4-3---2--3--4-----------|--3---------3--3--3--3--|--3--||
--------------------------------|--4---------4--4--4--4--|--4--||
--------------------------------|------------------------|-----||
--------------------------------|------------------------|-----||
--------------------------------|------------------------|-----||


OUTRO
2:24

     Q    E  E  E  E   E  E
E||--------------------------|
B||-------7--7--7--8--10-----|
G||-------7--7--7--9--11-----|
D||--------------------------|
A||--------------------------|
E||--------------------------|


  E  E  E  E  E  E  E  E      E   E   E   E   E   E   E   E
--------------7--7--7--7--|--10--10--10--10--12--12--12--15--|
--8--8--8--8--------------|----------------------------------|
--------------------------|----------------------------------|
--------------------------|----------------------------------|
--------------------------|----------------------------------|
--------------------------|----------------------------------|


      Q     Q    H           E   E   E   E   E  E   E   E
--10g12----10-------------|--------------------------------|
-----------10-------------|---------------------9--10--11--|
--------------------------|-----11--10--11--12-------------|
--------------------------|--------------------------------|
--------------------------|--------------------------------|
--------------------------|--------------------------------|


   Q     E   E   E   E   E   E     Q    E  E  E  E  E  E
--------------------------------|-------------------------|
--12----12--10--12--10--12--10--|--8----8--7--8--7--8--7--|
--12----12--11--12--11--12--11--|--9----9--7--9--7--9--7--|
--------------------------------|-------------------------|
--------------------------------|-------------------------|
--------------------------------|-------------------------|


  W                   Q    Q    Q    Q       W
-------------------|-------7----6----5----|--7----------------||
--5----------------|----------------------|--8----------------||
--5----------------|-------7----6----5----|--7----------------||
-------------------|----------------------|-------------------||
-------------------|----------------------|-------------------||
-------------------|----------------------|-------------------||
Suggest correction
Give kudos to tab author, rate the tab!
1 2 3 4 5
comments
print report bad tab
guest
You may want to rate the tab now too:
select rating
Wanna post a correction for this tab? Suggest correction