Oops, an error
Loading. Please wait.

Rocky Tab

version 2
version 2

Whole song

121 views 1 this week
no commentswrite comment
1 2 3 4 5
3 more votes to show rating
add to favorites
launch autoscroll
font size
0
reset
how to read this tab
guitar tuner
×
Best way to learn
"Rocky"
Autoscroll
slow
fast
+/-
esc
set tempo
stop
E|-|---------------------------------------------|
B|-|---------------0-------0-0-0-0-0-0-0-0-------|
G|-|-0-0-0-0-0-0-0---0-0-0-----------------------|
D|-|---------------------------------------------|
A|-|---------------------------------------------|
E|-|---------------------------------------------|

E|-|---------------------------------------------|
B|-|-3-0-0-0-------------------------------------|
G|-|---------------------------------------------|
D|-|---------4-4-4-4-4-4-4-4-5-4-4-4-4-4-4-------|
A|-|---------------------------------------------|
E|-|---------------------------------------------|

E|-|---------0-----------0-----------------------|
B|-|---1-3-3-------1-3-3-------------------------|
G|-|-2---------2-2---------2-1-0-0---------------|
D|-|-------------------------------3-5-3-5-------|
A|-|---------------------------------------------|
E|-|---------------------------------------------|

E|-|---------------------------------------------|
B|-|---------------------------------------------|
G|-|-2---------------3-2-2-2-2-2-2-2-2-2-2-2-2-2-|
D|-|---3-3-3-3-3-3-3-----------------------------|
A|-|---------------------------------------------|
E|-|---------------------------------------------|

E|-|-------1-------------------------------------|
B|-|-1-3-3---3-3-1-0-3-1-0-3-1-0---------3-1-0---|
G|-|-----------------------------2-0-2-0---------|
D|-|---------------------------------------------|
A|-|---------------------------------------------|
E|-|---------------------------------------------|

E|-|---------------------------------------------|
B|-|---1-1-0-------------------------------------|
G|-|-2-----------------0-2-2-2-2-2---------------|
D|-|---------2-5-2-2-2-------------2-2-2---------|
A|-|---------------------------------------------|
E|-|---------------------------------------------|

E|-|---------------------------------------------|
B|-|---0-0-------------0-------------------------|
G|-|-0-----2-0-2-0---0---2-----------------0-----|
D|-|---------------2-------2-2-0---0-0-2-0-------|
A|-|-----------------------------2---------------|
E|-|---------------------------------------------|

E|-|---------------------------------------------|
B|-|-----0-0-0-----------------------------------|
G|-|-2-0-------2-0---0-2-0-2-------0-2-0-2-------|
D|-|---------------2---------2-2-2---------2-----|
A|-|---------------------------------------------|
E|-|---------------------------------------------|


E|-|-------0-----------0-0-----------------------|
B|-|-0-3-0---3-0-3-0-3-----3-0-3-0-3-0---------0-|
G|-|-----------------------------------2-0-2-2---|
D|-|---------------------------------------------|
A|-|---------------------------------------------|
E|-|---------------------------------------------|

E|-|---------------------------------------------|
B|-|-0-------------------0-----------------------|
G|-|-----------0-2-0-2-2---------------0---------|
D|-|---2-0-2-2-------------2-2-2-2-2-2-----------|
A|-|---------------------------------------------|
E|-|---------------------------------------------|

E|-|---------------------------------------------|
B|-|---------------------------------------------|
G|-|---------------------------------------------|
D|-|-2-2-2-0-0-0-2-2-2-3-3-3---------------------|
A|-|---------------------------------------------|
E|-|---------------------------------------------|

hola a todos,les dejo el punteo de esta buena canción
comenten que les parece,la hice yo ya que no estaba
muy bien en ningún lugar y me queria saverla ,que les sirva.
Suggest correction
Give kudos to tab author, rate the tab!
1 2 3 4 5
comments
print report bad tab
guest
You may want to rate the tab now too:
select rating
Wanna post a correction for this tab? Suggest correction