Oops, an error
Loading. Please wait.

Rugrats, Aventuras En Pañales Tab

59 views 1 this week
no commentswrite comment
1 2 3 4 5
3 more votes to show rating
add to favorites
launch autoscroll
font size
0
reset
how to read this tab
guitar tuner
Autoscroll
slow
fast
+/-
esc
set tempo
stop
Help us to improve Ultimate-Guitar.com Take our survey!
×
e-----0-1-3-5-3-0-1-0---
b-1-3-----------------3-
g-----------------------
D-----------------------
A-----------------------
E-----------------------

e-----0-1-3-5-7-3-5-3-1-
b-1-3------------------
g-----------------------
D-----------------------
A-----------------------
E-----------------------

e-----0-1-3-5-3-0-1-0---
b-1-3-----------------3-
g-----------------------
D-----------------------
A-----------------------
E-----------------------

e-----0-1-3-5-7-3-5-3-1-
b-1-3-------------------
g-----------------------
D-----------------------
A-----------------------
E-----------------------

e-----0-1-3-5-7-5-3-1-0-------
b-1-3---------------------3-1-
g-----------------------------
D-----------------------------
A-----------------------------
E-----------------------------

e-7-8-
b-----
g-----
D-----
A-----
E-----

ESTE TEMA TAMBIEN APARECE EN ALGUNAS PARTES DE LA PELÍCULA..
TAMBIEN APARECE EN LA SERIE ANIMADA DE NICKELODEON...
Suggest correction
Give kudos to tab author, rate the tab!
1 2 3 4 5
comments
print report bad tab
guest
You may want to rate the tab now too:
select rating
Wanna post a correction for this tab? Suggest correction