Oops, an error
Loading. Please wait.

Se Arrienda Tab

4 views 1 this week
no commentswrite comment
1 2 3 4 5
3 more votes to show rating
add to favorites
×
Save as Personal and add changes to this tab that will be seen only by you. Learn more ›
×
You can save this tab as Personal to edit and correct it or add notes. All changes will be seen only by you. Learn more »
save as personal
new!
launch autoscroll
font size
0
reset
how to read this tab
guitar tuner
Autoscroll
slow
fast
+/-
esc
set tempo
stop
Andres Valdivia - Encontrar


Intro

E -----------5------------5--------------------------------------
B ---5---7---7----5---7---7-----7---7---5--5---3--3--1--1---0--0-
G ---------------------------------------------------------------
D ---------------------------------------------------------------
A ---------------------------------------------------------------
E ---------------------------------------------------------------


E ---------------------------------------------------
B ----------------3----------------------------------
G --0---2---4-------4---2---0------------------------
D ---------------------------------2-----------------
A ---------------------------------------------------
E ---------------------------------------------------


E ------------------------------------5-----------------------------
B ----5s8---7---5---3-----5---7---7---------------------------------
G ------------------------------------------------------------------


D                 C                    G
Hay dime donde estás Donde fuiste a parar

D ----5---4---2---0--------

D                 C                      G
Hay cuéntame que pasa cuando miras hacia atrás

D ---5---4---2---0---------

Bm                      Em/Em7
Te perdiste en un momento

Bm                      Em/Em7
Te escondiste en un lugar

Bm                       Em/Em7
Donde ya no hay recuerdos

C9
No te puedes encontrar


E -----7--7---8-----10----12----10-------------------
B -----6--6---6------8----12-----8-------------------
G ---------------------------------------------------

E -----7---7----8----5---7----------
B -----6---6----6----3---5----------
G ----------------------------------

Con Intro

A un lado del camino te sientas a esperar

D               C                           G
Que un rayo te despierte que te haga reaccionar

Coro


Em /Em7: 022000 /022033


Gran película, gran canción.
Suggest correction
Give kudos to tab author, rate the tab!
1 2 3 4 5
comments
print report bad tab
guest
Wanna post a correction for this tab? Suggest correction