Oops, an error
Loading. Please wait.

Star Wars - Marcha Imperial Tab

687 views 9 this week
no commentswrite comment
1 2 3 4 5
1 last vote to show rating
add to favorites
launch autoscroll
font size
0
reset
how to read this tab
guitar tuner
Autoscroll
slow
fast
+/-
esc
set tempo
stop
Help us to improve Ultimate-Guitar.com Take our survey!
×
Este es el tema ke suena cuando aparece el unico DARTH VADER...

|----------------------------------------------------|
|----------------------------------------------------|
|----------------------------------------------------|
|--------------------------2-2-2-3-------------------|
|-0--0-0-0---3-0----3-0------------3------3-0--------|
|----------1------1------------------4--1------------|

|-------------------------------------------------------------|
|-------------------------------------------------------------|
|-------------------------------------------------------------|
|-------------------------------------------------------------|
|-12-0-0-12-11-10-9-8-9----6----------------------3-0---3-0---|
|-----------------------6-----10-9--8-7-8--1--4-1-----1-------|

|----------------------------------------------------|
|----------------------------------------------------|
|----------------------------------------------------|
|----------------------------------------------------|
|-----3---3-----12-0-0-12-11-10-9-8---6--------------|
|-1-4---5---12----------------------6----10-9-8-7-8--|

Yo soy tu padre!!!!
Suggest correction
Give kudos to tab author, rate the tab!
1 2 3 4 5
comments
print report bad tab
guest
You may want to rate the tab now too:
select rating
Wanna post a correction for this tab? Suggest correction