Oops, an error
Loading. Please wait.

Tengo Ganas De Ti - La Cama Tab

136 views 1 this week
no commentswrite comment
1 2 3 4 5
3 more votes to show rating
add to favorites
launch autoscroll
font size
0
reset
how to read this tab
guitar tuner
×
Best way to learn
"Tengo Ganas De Ti - La Cama"
Autoscroll
slow
fast
+/-
esc
set tempo
stop
Tuning: Standard.

E7 x22130

Intro: E

Verso I
E                                    F#m
Esta semana pensé secuestrarte en mi casa
B                                    E
Luego miraba tus fotos al irme a dormir
E                                   F#m
Quiero saber como eres saber que te pasa y por fin
B                                    E   E7
Que me conozcas y que te enamores de mi

Coro
A                   B                        C#m
Todas las noches me acuesto y te busco en mi cama
                               A
Y tú nunca estas pero sé que mañana
         B                   E   E7
Ya nunca podrás olvidarte de mi

A                 B                  C#m
Voy a ser tu pesadilla de noche y de día
                            A
Y tú me dirás eres toda mi vida
             B                      E
No digas que no aún no has estado aquí

   E                 F#m         B                    E
e--------------------------------------------------------------|
B--12-10-9---9-10-12-12p--10-----12----12-12-12-10-10-9--------|
G----------------------------------11--------------------------|
D--------------------------------------------------------------|
A--------------------------------------------------------------|
E--------------------------------------------------------------|

Verso II
E                                           F#m
Nunca pensaste que fuera a encerrarte en mi casa
B                                        E
Nunca pensé que pudiera yo hacerte esto a ti
E                                   F#m
Comprenderás que esta era la única forma de hacer
B                                    E   E7
Que me quisieras y no repetir otra vez

Coro
A                   B                        C#m
Todas las noches me acuesto y te busco en mi cama
                               A
Y tú nunca estas pero sé que mañana
         B                   E   E7
Ya nunca podrás olvidarte de mi

A                 B                  C#m
Voy a ser tu pesadilla de noche y de día
                            A
Y tú me dirás eres toda mi vida
             B                      E  E7
No digas que no aún no has estado aquí

A                   B                        C#m
Todas las noches me acuesto y te busco en mi cama
                               A
Y tú nunca estas pero sé que mañana
         B5                   E
Ya nunca podrás olvidarte de mi


   E                 F#m         B                    E
e--------------------------------------------------------------|
B--12-10-9---9-10-12-12p--10-----12----12-12-12-10-10-9--------|
G----------------------------------11--------------------------|
D--------------------------------------------------------------|
A--------------------------------------------------------------|
E--------------------------------------------------------------|


_____________________________________________


Capo 2 traste


Intro: D

Verso I
D                                    Em
Esta semana pensé secuestrarte en mi casa
A                                     D
Luego miraba tus fotos al irme a dormir
D                                   Em
Quiero saber como eres saber que te pasa y por fin
A                                    D   D7
Que me conozcas y que te enamores de mi

Coro
G                   A                        Bm
Todas las noches me acuesto y te busco en mi cama
                               G
Y tú nunca estas pero sé que mañana
         A                   D   D7
Ya nunca podrás olvidarte de mi

G                 A                  Bm
Voy a ser tu pesadilla de noche y de día
                            G
Y tú me dirás eres toda mi vida
             A                      D
No digas que no aún no has estado aquí

   D                 Em          A                    D
e--------------------------------------------------------------|
B--12-10-9---9-10-12-12p--10-----12----12-12-12-10-10-9--------|
G----------------------------------11--------------------------|
D--------------------------------------------------------------|
A--------------------------------------------------------------|
E--------------------------------------------------------------|

Verso II
D                                           Em
Nunca pensaste que fuera a encerrarte en mi casa
A                                        D
Nunca pensé que pudiera yo hacerte esto a ti
D                                   Em
Comprenderás que esta era la única forma de hacer
A                                    D   D7
Que me quisieras y no repetir otra vez

Coro
G                   A                        Bm
Todas las noches me acuesto y te busco en mi cama
                               G
Y tú nunca estas pero sé que mañana
         A                   D   D7
Ya nunca podrás olvidarte de mi

G                 A                  Bm
Voy a ser tu pesadilla de noche y de día
                            G
Y tú me dirás eres toda mi vida
             A                      D  D7
No digas que no aún no has estado aquí

G                   A                        Bm
Todas las noches me acuesto y te busco en mi cama
                               G
Y tú nunca estas pero sé que mañana
         A5                   D
Ya nunca podrás olvidarte de mi

   D                 Em          A                    D
e--------------------------------------------------------------|
B--12-10-9---9-10-12-12p--10-----12----12-12-12-10-10-9--------|
G----------------------------------11--------------------------|
D--------------------------------------------------------------|
A--------------------------------------------------------------|
E--------------------------------------------------------------|
Suggest correction
Give kudos to tab author, rate the tab!
1 2 3 4 5
comments
print report bad tab
guest
You may want to rate the tab now too:
select rating
Wanna post a correction for this tab? Suggest correction