Oops, an error
Loading. Please wait.

Un Hombre Y Una Mujer Tab

28 views 1 this week
no commentswrite comment
1 2 3 4 5
3 more votes to show rating
add to favorites
launch autoscroll
font size
0
reset
how to read this tab
guitar tuner
Autoscroll
slow
fast
+/-
esc
set tempo
stop
Help us to improve Ultimate-Guitar.com Take our survey!
×
Hola a todos, esta es una rolita un poco vieja pero a mi 
me gusto, esta chida ahi les va

E-------------5-------5-------5-----3-5-6-4------------
A------------------------------------------------------
D-2---4---5--------------------------------------------
g-------------6-6-6-6---6-6-6---6---4-6-7---5-5-5------
b-------------5-5-5-5---5-5-5-----5-3-5-6---4-4-4------
e---0---2---3-4-4-4-4---4-4-4-----4-2-4-5---4-4-4------

E-4-------4-----2-4-5-3-------3-------3----------------
A------------------------------------------------------
D------------------------------------------------------
g---5-5-5---5---3-5-6-4-4-4-4---4-4-4---4--------------
b---4-4-4-----4-2-4-5-3-3-3-3---3-3-3-----3------------
e---4-4-4-----4-2-4-5-2-2-2-2---2-2-2-----2-0-2-3------

E-----------------------------------------5------------
A-4----------------------------------------------------
D---------4---------------4-4-4-4-4--------------------
g---3-3-3---3-3-3-3-------3-3-3-3-3-------6-6----------
b---2-2-2---2-2-2-2-------4-4-4-4-4-------5-5--etc...--
e---2-2-2---2-2-2-2-0-0-2-----------0-2-3-4-4----------

La rola va asi, espero que les guste, suerte, dudas o 
aclaraciones escribanme a gogoladze15@
Suggest correction
Give kudos to tab author, rate the tab!
1 2 3 4 5
comments
print report bad tab
guest
You may want to rate the tab now too:
select rating
Wanna post a correction for this tab? Suggest correction