Oops, an error
Loading. Please wait.

Cada Vez Que Te Veo Chords

30 views 1 this week
no commentswrite comment
1 2 3 4 5
3 more votes to show rating
add to favorites
launch autoscroll
font size
0
reset
transpose
0
reset
display chords
guitar tuner
Autoscroll
slow
fast
+/-
esc
set tempo
stop
Help us to improve Ultimate-Guitar.com Take our survey!
×
(*) 40 54 52 A 50 52 54 D 40 54 52 A 50 52 54 40 44 32 40

                                    (*)
Cada vez que te veo, se me endereza.
          F#                   Bm                A
Se me endereza cada vez que te veo, se me endereza,
                                  (*)
el rabillo la boina, de la cabeza.

Veinticinco mujeres, cincuenta tetas.
Cincuenta tetas, veinticinco mujeres, cincuenta tetas.
Si las cuento tres veces, ciento cincuenta.

Doce frailes cartujos, en un convento.
En un convento doce frailes cartujos, en un convento.
Veinticuatro pelotas, doce instrumentos.

Y en la puerta la iglesia, te eché un casquete.
Te eché un casquete a la puerta la iglesia, te eché un casquete.
Si no llega a estar el cura, te echo hasta siete.

La mujer de Aladino dicen que vino.
Dicen que vino la mujer de Aladino, dicen que vino.
De una casa muy fina del Barrio Chino.

La mujer del Herrero dicen que tiene.
Dicen que tiene la mujer del herrero, dicen que tiene.
Por delante la fragua, detrás el fuelle.

Y arrancando patatas, te he visto el culo.
Te he visto el culo arrancando patatas, te he visto el culo.
Nunca vi locomotora que eche más humo.

Cada vez que te veo, me chasca el rabo.
Me chasca el rabo cada vez que te veo, me chasca el rabo,
ser  porque te quiero, hija de puta.


CIFRADOS

|-5-4-2-0--0-0-0---0-2-4-5--5-5-5---5-4-2-0--0-0-0---0-2-4-5-9-12-5---
|------------------3-2-0-----------------------------3-2-0---2-0------  (*)
|------------------------3--3-3-3--------------------------3----------


  Cada vez que te ve_o, se me_endereza        Se me_endereza cada vez que te ve_o, se
|--0-0--0----0--0--2-0-------0----------     -----------------1-1--1----0--1--4-2---2----
|------------------------2-------2-0---- (*) ----------0-2-2-----------------------------
|------------------------------------3--     --3---3-------------------------------------


  me_endere_e_eza. El rabillo de la boina de la cabeza.
|---2---2-2-1-2-4--0---0-0--0--0--0--2--0-----0-----------
|------------------------------------------2-----2-0------
|----------------------------------------------------3----
Suggest correction
Give kudos to tab author, rate the tab!
1 2 3 4 5
comments
print report bad tab
guest
You may want to rate the tab now too:
select rating
Wanna post a correction for this tab? Suggest correction