Oops, an error
Loading. Please wait.

Tuna Compostelana Tab

60 views 1 this week
no commentswrite comment
1 2 3 4 5
3 more votes to show rating
add to favorites
launch autoscroll
font size
0
reset
how to read this tab
guitar tuner
×
Best way to learn
"Tuna Compostelana"
Autoscroll
slow
fast
+/-
esc
set tempo
stop
esta es una tablatura para bandurria...

              Pasa la Tuna_en Santiago cantando muy quedo romances de_amor
|--0-1-0--------0-------0----------1-----0--1--0-------0---------------------0-1-0-------
|--------3-1-0----1--------1----------3-----------3------1--1-3--0----0------------3-1-0-
|--------------------3----------3----------------------------------------3---------------
|
|
|----------------------------------------------------------------------------------------
|--1-3-1-0------1-------1----------3--0--1--3--1--0----1------0--------------1-3-1-0-----
|----------3-2----3--------3-----------------------------3--3----3----2--3-----------3-2-
|--------------------3----------3--------------------------------------------------------


  Luego la noche_en sus ecos los cuela de ronda en cada balcón. Pero_allá_en el templo
|---0-------0-----------1-----0---1--0--1--3--3-3---5-3--1--0----------------------------
|-----1---------1---------3--------------------------------------1--1----1---3---1---0---
|--------3-----------3-------------------------------------------------------------------
|
|
|------------------------------------------0--0-0---1-0----------------------------------
|--1--------1-----------3-0---1---3--1--3----------------3--1----------------0-----------
|-----3---------3------------------------------------------------3--3----3-------3---2---
|--------3-----------3-------------------------------------------------------------------


        del Apostol Santo       una niña llora ante su patrón. Porque la capa del tuno
|----------------0-----------0--0-0--0-1---0------0--1--3--0----3---3--3--3-1------3-1---
|--1-3---3--3-3------3--1--3-----------------3-3-------------------------------3---------
|----------------------------------------------------------------------------------------
|
|
|-------------------------------------------------------0-------0---0--0--0--------0-----
|----0---0--0-0--1---0-----0-1--1-1--1?3---1-0-0--1--3-----1----------------3--0-----3---
|--3--------------------3----------------------------------------------------------------


  que_adora no lleva la cinta que_ella le bordó, porque la capa del tuno que_adora no
|-------1-0------1-0-----0-------0------------0---3---3--3--3-1------3-1-------1-0-------
|----3-------1--------1-----3--------3--1--3---------------------3----------3-------1----
|----------------------------------------------------------------------------------------
|
|
|-------------------------------------------------0---0--0--0--------0-------------------
|----0--3-1------3-1-----1--0----1---0-----0--1---------------3--0-----3----0--3-1-------
|------------3--------3-----------------3-------------------------------------------3----


  lleva la cinta que_ella le bordó.
|---1-0-----0-------0-----------------0-0-0-0-0---
|--------1-----3--------3--1--0?------2-2-2-2-2---
|--------------------------------3----3-3-3-3-3---
|
|
|-------------------------------------0-0-0-0-0---
|---3-1-----1--0----1---0------?------2-2-2-2-2---
|--------3-----------------3--2--3----3-3-3-3-3---


  Cuando la Tuna te de serenata no te_enamores compostelana. Que cada cinta que_adorna
|------------0-0--0--0----0---0--0---0----0-------------2-0------------0--0----0--0------
|---------2-------------4-------------------3---3--2--3-------------2----------------4---
|--3---3-------------------------------------------------------3--3----------------------
|
|
|----------------------------------------------------------------------------------------
|------------2-2--2--2--1-2-3-2--2---2--3-2-0---0-----0-3-2------------2--2----2--2--1---
|---------3----------------------------------------3----------------3--------------------
|--0---3-------------------------------------------------------0--3----------------------


  mi capa lleva_un trocito de corazón.         Tra la ra la la la ra la, no te_enamores
|--0--2-0---0--0-----2-0---------------0------------5--4--5--7--5--2--0---0---0--2-0-----
|------------------------3--3--2-0---2---2-------------------------------------------3---
|----------------------------------3-------3-----3---------------------------------------
|
|
|------------------------------------------------------------0---------------------------
|--2--3-2---2--2-----3-2-0--0-----------------------3--2--3-----3--0--2---2---2--3-2-0---
|------------------------------3-2-3-3-2-3-3-----3---------------------------------------


  compostelana. Y deja la Tuna pasar con su tra la ra la ra, con su tra la ra la ra
|----------2-0-----5-4--5--7-5--2-0---0---2---0---------------0---2---0------------------
|--3--2--3---------------------------------------3--2--0-----------------3--2--0---------
|---------------3-----------------------------------------3-----------------------3------
|
|
|--------------------------0-------------------------------------------------------------
|--0-----0-3-2-----3-2--3----3--0-2---2---3---2--0------------2---3---2--0---------------
|-----3---------3-----------------------------------3--2--3-----------------3--2--3------


  con su tra la ra la ra.
|--0---2---0--0--2--4--5----
|---------------------------
|---------------------------
|
|
|---------------------------
|--2---3---2--0-------------
|----------------3--2--3----
Suggest correction
Give kudos to tab author, rate the tab!
1 2 3 4 5
comments
print report bad tab
guest
You may want to rate the tab now too:
select rating
Wanna post a correction for this tab? Suggest correction