Oops, an error
Loading. Please wait.

31 Minutos Tab

77 views 1 this week
no commentswrite comment
1 2 3 4 5
2 more votes to show rating
add to favorites
launch autoscroll
font size
0
reset
how to read this tab
guitar tuner
×
Best way to learn
"31 Minutos"
Autoscroll
slow
fast
+/-
esc
set tempo
stop
e||---------------------------|-------------------|
B||------------0-----------0--|-------------------|
G||---0--2--0-----0--2--0-----|--0--2--0-----0----|
D||---------------------------|-----------2-------|
A||---------------------------|-------------------|
E||---------------------------|-------------------|

e||---------------------------|-------------------|
B||------------0-----------0--|-------------------|
G||---0--2--0-----0--2--0-----|--0--2--0----------|
D||---------------------------|-----------2^------|
A||---------------------------|-------------------|
E||---------------------------|-------------------|

e||---------------------------|-------------------|
B||------------0-----------0--|-------------------|
G||---0--2--0-----0--2--0-----|--0--2--0-----0----|
D||---------------------------|-----------2-------|
A||---------------------------|-------------------|
E||---------------------------|-------------------|

e||---------------------------|-------------------|
B||------------0-----------3--|-------0-----------|
G||---0--2--0-----0--2--0-----|---0-------2---0---|
D||---------------------------|-------------------|
A||---------------------------|-------------------|
E||---------------------------|-------------------|

e||--------------|--------------0-----------------|
B||--------------|-----------3-----3--0-----------|
G||·-0--2--0--2--|--0--2--0--------------2--0-----|
D||·-------------|-----------------------------2--|
A||--------------|--------------------------------|
E||--------------|--------------------------------|

e||--------------|-----------------|------------------|
B||--------------|-----------3--0--|--1--0-----0------|
G||--0--2--0--2--|--0--2--0--------|--------2-----0---|
D||--------------|-----------------|------------------|
A||--------------|-----------------|------------------|
E||--------------|-----------------|------------------|

e||--------------|-----------------------|---------------|
B||--------------|-----------3--1--0-----|-----------0---|
G||--0--2--0--2--|--0--2--0-----------2--|--0--2--0------|
D||--------------|-----------------------|---------------|
A||--------------|-----------------------|---------------|
E||--------------|-----------------------|---------------|


e||---------------|--------------|----------------||
B||------------3--|-----0--------|----------------||
G||---0--2--0-----|--0-----2--0--|-------0---2---·||
D||---------------|--------------|---2-----------·||
A||---------------|--------------|----------------||
E||---------------|--------------|----------------||


SALU2 A TODOS EN ESPECIAL A LOS HINCHAS CRXZADOS DE CHILE!!!
Suggest correction
Give kudos to tab author, rate the tab!
1 2 3 4 5
comments
print report bad tab
guest
You may want to rate the tab now too:
select rating
Wanna post a correction for this tab? Suggest correction