Oops, an error
Loading. Please wait.

31 Miuntos - Dinosaurio Anacleto Tab

125 views 1 this week
no commentswrite comment
1 2 3 4 5
3 more votes to show rating
add to favorites
×
Save as Personal and add changes to this tab that will be seen only by you. Learn more ›
×
You can save this tab as Personal to edit and correct it or add notes. All changes will be seen only by you. Learn more »
save as personal
new!
launch autoscroll
font size
0
reset
how to read this tab
guitar tuner
Autoscroll
slow
fast
+/-
esc
set tempo
stop
A:
--------------------------------------------------------
-----------------3 3 3 6---------------------3 3 3------
---------4 4 4 4----------6 6---------4 4 4 4-------4 6-
-4 4 4 4----------------------4 4 4 4-------------------
--------------------------------------------------------
--------------------------------------------------------

B:
-------------------------------------------------------
-7 6 4-----------------6-----7 6 4---------------------
-------6 4 3-----3 3 3---6 6-------6 4 3-----3 3 3-----
-------------6 4-------------------------6 4-------4 6-
-------------------------------------------------------
-------------------------------------------------------

C(*):
-------------------------6 4 2-----------------------6 4 2-
-6 6 6 4 6 7 4 4 2 4 2---------6 6 6 4 6 7 4 4 2 4 2-------
-----------------------3-----------------------------------
-----------------------------------------------------------
-----------------------------------------------------------
-----------------------------------------------------------

C(**)
---------------------------------------------------
-6 6 6 4 6 7 4 4 2 4 2-----------------------------
-----------------------3---3 3---------3 3---------
-------------------------4-----6 4 6 4-----6 4 6---
---------------------------------------------------
---------------------------------------------------


A

Soy un dinosaurio y me llamo Anacleto
por cosas del destino no morí en la glaciación
mis amigos se extinguieron me dejaron sólo
y tuve que resignarme a esta situación

B
Me aburría mucho por que no tenía parientes
nadie conocido con quien salir a jugar
tuve que inventarme amigos para entretenerme
sentarme frente a un espejo para conversar

A
Pero una mañana decidí cambiar mi suerte
y mandé un proyecto para la televisión
se trataba de un programa para la familia
con cantantes y concursos, mucha diversión

B
El gerente del canal me llamó a su oficina
le encantó el programa y me dijo 'hagámoslo'
firmamos contrato y después de un par de meses
yo me convertí en figura de televisión

C(*)
Conocí a las estrellas
de las portadas, u-hu-hu
sumergido en la fama
y en el placer, u-hu-hu

C(**)
Me compré autos caros
una casa en la playa
pero no fui feliz
pero no fui feliz...
no fui feliz

A
Todavía extrañaba a mis amigos dinosaurios
y a los cavernícolas que nos querían cazar
por eso un buen dia me vine a vivir al campo
a cambiar la fama por amigos de verdad...
Suggest correction
Give kudos to tab author, rate the tab!
1 2 3 4 5
comments
print report bad tab
guest
Wanna post a correction for this tab? Suggest correction