Oops, an error
Loading. Please wait.

Angel Tab

version 1
version 1

Whole song

13 views 1 this week
no commentswrite comment
1 2 3 4 5
3 more votes to show rating
add to favorites
launch autoscroll
font size
0
reset
how to read this tab
guitar tuner
×
Best way to learn
"Angel"
Autoscroll
slow
fast
+/-
esc
set tempo
stop
Esta rola va dedicada al slash y a todos que ven la serie de angel 

 E:-----------------------------------------------------------------|
 B:-----------------------------------------------------------------|
 G:------------------7---5---4---4----------------------------------|
 D:----2---4---5---/-----------------7--5---5--4--2----4--5---------|
 A:----------------------------------------------------------3------|
 E:-----------------------------------------------------------------|
 

 E:-----------------------------------------------------------------|
 B:-----------------------------------------------------------------|
 G:-----------------7---5----4-4--/---11-12-------------------------|
 D:---2---4---5---/--------------------------10-----10----10/9------|
 A:-----------------------------------------------------------------|
 E:-----------------------------------------------------------------|


 E:----------------------------------------------------------------|
 B:----------------------------------------------------------------|
 G:----------------------------------------------------------------|
 D:--------4-----2----4------2----4/5------4----2---4/5--/--7--/10-|
 A:----2--------------------------------2--------------------------|
 E:----------------------------------------------------------------|


 E:----------------------------------------------------------------|
 B:----------------------------------------------------------------|
 G:-------------------------------7--------------------------------|
 D:----------9----10----9----7----------10---9----7---5----4-------|
 A:----------------------------------------------------------------|
 E:----------------------------------------------------------------|


 E:----------------------------------------------------------------|
 B:----------------------------------------------------------------|
 G:------------------7---5---4--4--/---11---12---------------------|
 D:---2----4---5--/--------------------------------10---10---10/9--|
 A:----------------------------------------------------------------|
 E:----------------------------------------------------------------|


 E:--------7-------------5------------3-----------2----------0-----|
 B:----------------------------------------------------------------|
 G:--------7-------------5------------3-----------2----------0-----|
 D:----------------------------------------------------------------|
 A:----------------------------------------------------------------|
 E:----------------------------------------------------------------|
es todo  espero que les (haiga ja ja) haya gustado nos vemos
Suggest correction
Give kudos to tab author, rate the tab!
1 2 3 4 5
comments
print report bad tab
guest
You may want to rate the tab now too:
select rating
Wanna post a correction for this tab? Suggest correction