Oops, an error
Loading. Please wait.

Barney Tab

version 2
version 2

Whole song

28 views 1 this week
no commentswrite comment
1 2 3 4 5
3 more votes to show rating
add to favorites
launch autoscroll
font size
0
reset
how to read this tab
guitar tuner
×
Best way to learn
"Barney"
Autoscroll
slow
fast
+/-
esc
set tempo
stop
e||------------0-----0-----|-----------------0--------|
B||---1--1--3-----1-----3--|--------1--1--3-----1--3--|
G||·-----------------------|--0--0--------------------|
D||·-----------------------|--------------------------|
A||------------------------|--------------------------|
E||------------------------|--------------------------|

e||-------------0--1--0-----------|-------------------|
B||----1--1--3-----------3--1--0--|---------0--1--1---|
G||-------------------------------|---0--2------------|
D||-------------------------------|-------------------|
A||-------------------------------|-------------------|
E||-------------------------------|-------------------|

e||-------------------------|-------------------------|
B||-------0-----------0--1--|-------------------------|
G||----2-----2--0--2--------|--2--0--2--0--------0----|
D||-------------------------|--------------3--2-------|
A||-------------------------|-------------------------|
E||-------------------------|-------------------------|

e||-----------------------|---------------------------|
B||-----0-----------0--1--|--1--1--0--------0--1--1---|
G||--2-----2--0--2--------|-----------0--2-----------·|
D||-----------------------|--------------------------·|
A||-----------------------|---------------------------|
E||-----------------------|---------------------------|


SALU2 A TODOS, ESPERO QUE LES GUSTE
Suggest correction
Give kudos to tab author, rate the tab!
1 2 3 4 5
comments
print report bad tab
guest
You may want to rate the tab now too:
select rating
Wanna post a correction for this tab? Suggest correction