Oops, an error
Loading. Please wait.

Barrio Sesamo Tab

82 views 1 this week
no commentswrite comment
1 2 3 4 5
3 more votes to show rating
add to favorites
launch autoscroll
font size
0
reset
how to read this tab
guitar tuner
×
Best way to learn
"Barrio Sesamo"
Autoscroll
slow
fast
+/-
esc
set tempo
stop
--------------------------------------------
--------------------------------------------
-0--------------------0--------0------------
----2---------0--2------2--------2----------
-------3---3----------------3--------3---3--
--------------------------------------------

----------------------------------------------------------------
----------------------------------------------------------------
----------------------------------------------------------------
-0--2---4--5--7---5--7--8--7--5--0--0---2--3--2--0--------------
-------------------------------------------------------------0--0
-----------------------------------------------------------------
Suggest correction
Give kudos to tab author, rate the tab!
1 2 3 4 5
comments
print report bad tab
guest
You may want to rate the tab now too:
select rating
Wanna post a correction for this tab? Suggest correction