Oops, an error
Loading. Please wait.

Bob Esponja - Cancion Inicial Tab

version 3
version 3

Whole song

133 views 6 this week
no commentswrite comment
1 2 3 4 5
3 more votes to show rating
add to favorites
launch autoscroll
font size
0
reset
how to read this tab
guitar tuner
Autoscroll
slow
fast
+/-
esc
set tempo
stop
Help us to improve Ultimate-Guitar.com Take our survey!
×
buscando la cacniocn de bob esponja, me di cuenta q la melodia
q aparecia en estas versiones estaban mal, todavia no le puse los
bajos en resumen es la melodia simple

vive en una piña debajo del mar    bob esponja
----------------------             7------
-7-7-9-7-------7-9-7--             --9-7--
---------8---8-------8             ------8
-----------9----------             -------
----------------------             -------


su cuerpo absorbe y sin estallar   bob esponja

-7-7-9-7-------7-9-7--             12-9-7-
---------9---9-------9             ------9
-----------9----------             -------
----------------------             -------
----------------------             -------


el mejor amigo que podrías desear  Bob esponja
----------------------             7------
-7-7-9-7-------7-9-7--             --9-7--
---------8---8-------8             ------8
-----------9----------             -------
----------------------             -------


y como un pez le es fácil flotar   Bob esponja

-7-7-9-7-------7-9-7--             12-9-7-
---------9---9-------9             ------9
-----------9----------             -------
----------------------             -------
----------------------             -------


Bob esponja   Bob esponja   Bob esponja
------------------------------------
-7------------7-------------7-------
---8-6----------8-6-----------8-6---
-------8------------8-------------8-
------------------------------------


el es Bob esponja!!!!!!!!jajajaja
---------------------------
-------6-7-7---------------
-6-6-8---------------------
---------------------------
---------------------------


el silbido
---------------------12/14-
-------11----11------------
-11-13----13----11---------
---------------------------
---------------------------


eso ultimo de 12/14 es que se arrastra
del traste 12 al 14 espero q les guste o al menos les sirva de guia
 si lo quieren hacer mejor por supuesto :) saludos
Suggest correction
Give kudos to tab author, rate the tab!
1 2 3 4 5
comments
print report bad tab
guest
You may want to rate the tab now too:
select rating
Wanna post a correction for this tab? Suggest correction