Oops, an error
Loading. Please wait.

Bricomania - Briconsejo Tab

143 views 1 this week
no commentswrite comment
1 2 3 4 5
3 more votes to show rating
add to favorites
launch autoscroll
font size
0
reset
how to read this tab
guitar tuner
×
Best way to learn
"Bricomania - Briconsejo"
Autoscroll
slow
fast
+/-
esc
set tempo
stop
E-------------------------------------------------------------------------
B-------------------------------------------------------------------------
G-------------------------------------------------------------------------
D---------7-------9-----11------7-----11-----9----6----7----6------------
A-----7----------------------------------------------------------9-------
E-------------------------------------------------------------------------


E-------------------------------------------------------------------------
B-------------------------------------------------------------------------
G-------------------------------------------------------------------------
D---------7-----9------11-------7--------11--------9------6--------------
A-----7----------------------------------------------------------9-------
E-------------------------------------------------------------------------

                                                                       X2

E-------------------------------------------------------------------------
B-------------------------------------------------------------------------
G------------------------------------------------------------------------
D-------------------------6----7-----6------------------6-----7----9----7--
A------------7------9----------------------7-------9---------------------
E-----10------------------------------------------------------------------


E-------------------------------------------------------------------------
B-------------------------------------------------------------------------
G-------------------------------------------------------------------------
D---------------6-----7-----9-----11-------9-------7------6---------------
A--------9----------------------------------------------------------------
E-------------------------------------------------------------------------


E--------------------------------------------------------------------------
B--------------------------------------------------------------------------
G-------------------------------------------------------------------------
D-------------------------6----7-----6-----------------6-----7----9-----7--
A------------7------9----------------------7------9------------------------
E-----10-------------------------------------------------------------------


E------------------------------------------------------------------------
B------------------------------------------------------------------------
G------------------------------------------------------------------------
D--------------------7--------9------------------------------------------
A-----9------------------------------------------------------------------
E------------10----------------------------------------------------------


pues nada, aqui os dejo la mítica cancion que todos conocemos
y que cuando te acuerdas de ella no puedes evitar silvar, jeje.

Si tienen alguna duda consulten con su farmaceutico, o simplemente
escribanme:      ales_gorriti@

un saludo
Suggest correction
Give kudos to tab author, rate the tab!
1 2 3 4 5
comments
print report bad tab
guest
You may want to rate the tab now too:
select rating
Wanna post a correction for this tab? Suggest correction