Oops, an error
Loading. Please wait.

Caballeros Del Zodiaco Tab

version 1
version 1

Whole song

182 views 6 this week
no commentswrite comment
1 2 3 4 5
3 more votes to show rating
add to favorites
launch autoscroll
font size
0
reset
how to read this tab
guitar tuner
Autoscroll
slow
fast
+/-
esc
set tempo
stop
Help us to improve Ultimate-Guitar.com Take our survey!
×
|-------0---3-1-0-----------0-------------0---3-5-3-1-0------0---3----------------|
|-1-1-3---1------3-1--1-1-3---1-----1-1-3---1-----------1-1-3--1------------------|
|-------------------------------0-------------------------------------------------|
|---------------------------------------------------------------------------------|
|---------------------------------------------------------------------------------|
|---------------------------------------------------------------------------------|


|-3-3-5-3-1-0-1-3-5-----3-1-0---0-1-3--0-0-1-0-------1-5-7-3-3-1-0-----------------|
|-------------------6-6-------3----------------3-1-3--------------3-1--------------|
|---------------------------------------------------------------------------------|
|---------------------------------------------------------------------------------|
|---------------------------------------------------------------------------------|
|---------------------------------------------------------------------------------|
Suggest correction
Give kudos to tab author, rate the tab!
1 2 3 4 5
comments
print report bad tab
guest
You may want to rate the tab now too:
select rating
Wanna post a correction for this tab? Suggest correction