Oops, an error
Loading. Please wait.

Caballeros Del Zodiaco Tab

version 3
version 3

Whole song

101 views 3 this week
no commentswrite comment
1 2 3 4 5
3 more votes to show rating
add to favorites
launch autoscroll
font size
0
reset
how to read this tab
guitar tuner
Autoscroll
slow
fast
+/-
esc
set tempo
stop
Help us to improve Ultimate-Guitar.com Take our survey!
×
PEGASUS FANTASY
tema de entrada de los Caballeros del Zodiaco

Tab por Daniel de la Parra


Me dio mucho gusto ver que Cartoon network esta 
retrasmitiendo Los Caballeros del Zodiaco, estas si 
eran caricaturas, no como la puterias que ven los 
niños de ahora como Pokemon y otros. Hace diez años 
veiamos esta serie con la clasica cancioncita de 'loz 
guardianez del univerzo...' pero ahora la estan 
trasmitiendo con la cancion original (en español) que 
esta de poca madre, yo la he tocado con mi banda un 
par de veces en los antros y... ¡la gente se enciende! 
asi que a darle:


Afina en mi (E)


Intro:

e|------------3--------------------------------|
B|--------4-------6---4--3-----3--4--3---------|
G|----5---------------------5-----------5--3---|
D|---------------------------------------------|
A|---------------------------------------------|
E|---------------------------------------------|

e|------------3--------------------------------|
B|--------4-------6---4--3---------------------|
G|----5---------------------5------------------|
D|---------------------------------------------|
A|---------------------------------------------|
E|---------------------------------------------|  x 2


Versos:


(Aqui ahoga un poco con tu mano derecha las cuerdas, 
se supone que ya sabes como rasgear, solo checa los 
tiempos)


Siempre la verdad
vencera a todo mal
y su quieres ser
un guerrero venceras

   Cm    B    G#  B    D#   G

e|----------------------------------------------|
B|----------------------------------------------|
G|----------------------------------------------|
D|--5----3--------3----8---12-------------------|
A|--3----1----6---1----6---10-------------------|
E|------------4---------------------------------|


tengo el poder
de llegar hasta el final
si los sueños se van 
el cosmos te guiara


   Cm    B   G#   B    Cm

e|----------------------------------------------|
B|----------------------------------------------|
G|----------------------------------------------|
D|--5----3--------3----5------------------------|
A|--3----1----6---1----3------------------------|
E|------------4---------------------------------|


(por ahi se escuchan unos fulls, estos son en la 
segunda cuerda, traste 17)


Puente:


Pegasus Fantasy luz y libertad


   G#    B                D#               Cm     

e|----------------------------------------------|
B|----------------------------------------------|
G|----------------------------------------------|
D|------ 3----------------8--------8--------5---|
A|--6----1----------6-6-6-6--5-5-5-5--3-3-3-3---|
E|--4-------------------------------------------|


estos son sus poderes
con el corazon 

      D#           F        

e|----------------------------------------------|
B|----------------------------------------------|
G|----------------------------------------------|
D|----8------------10---------------------------|
A|----6------------8----------------------------|
E|----------------------------------------------|


(la guitarra lider le puede agregar esto para darle 
mas feeling)

e|---------------------------------|
B|---------------------------------|
G|---------------------------------|
D|---------------------------------|
A|--3-5-6-5-3-6----5-6-8-6-5-8-----|
E|---------------------------------|


nadie te va a ganar

e|-------------------|
B|-------------------|
G|-------------------|
D|-------------------|
A|--9--10--12--------|
E|--7--8---10--------|


Saint seiya, jovenes guerreros
sait seiya siempre lucharan


   Cm  G#      B    D#   G

e|----------------------------------------------|
B|----------------------------------------------|
G|----------------------------------------------|
D|--5----------3----8----12---------------------|
A|--3---6------1----6----10---------------------|
E|------4---------------------------------------|


Saint seiya unidos por su fuerza
Saint seiya, pegaso
hasta el final

   Cm   G#     B

e|----------------------------------------------|
B|----------------------------------------------|
G|----------------------------------------------|
D|--5----------3--------------------------------|
A|--3---6------1--------------------------------|
E|------4---------------------------------------|


Outro:

e|--------------------------------------------|
B|--------------------------------------------|
G|--------------------------------------------|
D|--------------------------------------------|
A|---3--5-6-8----------5-6-8------------------|
E|-------------6----8-------------------------| x2


Esta es la version que se escucha en tv, existe una 
mas completa que es basicamente lo mismo 
te recomiendo mucho la version de Highlord 
(una banda italiana de power metal)


Si te gusto este tab dame las gracias: 
daniel_delaparra@
Suggest correction
Give kudos to tab author, rate the tab!
1 2 3 4 5
comments
print report bad tab
guest
You may want to rate the tab now too:
select rating
Wanna post a correction for this tab? Suggest correction