Oops, an error
Loading. Please wait.

Caballeros Del Zodiaco Abel Theme Tab

version 1
version 1

Whole song

154 views 3 this week
no commentswrite comment
1 2 3 4 5
3 more votes to show rating
add to favorites
launch autoscroll
font size
0
reset
how to read this tab
guitar tuner
×
Best way to learn
"Caballeros Del Zodiaco Abel Theme"
Autoscroll
slow
fast
+/-
esc
set tempo
stop
Aqui tienen para todos los aficionados de los Caballeros del Zodiaco,
este es el tema de Abel de la primer pelicula, espero que les guste, 
cualquier duda, comentario o critica enviarla a mi correo.


||--------------9----------------------14--17-19-16-14-12--14----
||---12---15-17-----10-12--15--19--------------------------------
||---------------------------------------------------------------
||---------------------------------------------------------------
||---------------------------------------------------------------
||---------------------------------------------------------------


||--------------9-------------------------------------------------
||---12---15-17-----10-12--15--19-----17-15-14--14-12-10--12------
||----------------------------------------------------------------
||----------------------------------------------------------------
||----------------------------------------------------------------
||----------------------------------------------------------------


||------------------16-17-19-17-16-14---16-17-19-17-19-17-16-14---
||---12-14-15-17-19-----------------------------------------------
||----------------------------------------------------------------
||----------------------------------------------------------------
||----------------------------------------------------------------
||----------------------------------------------------------------


||----------------------------------------------------------------
||---15-17-15-17-15-14---12----15---19----------------------------
||----------------------------------------------------------------
||----------------------------------------------------------------
||----------------------------------------------------------------
||----------------------------------------------------------------


||---17-19-17-16-14--16-17-19-17-19-17-16-14----------------------
||----------------------------------------------------------------
||----------------------------------------------------------------
||----------------------------------------------------------------
||----------------------------------------------------------------
||----------------------------------------------------------------


||----------------------------------------------------------------
||---15-17-15-17-15-14--------------------------------------------
||-----------------------14---14---16-----------------------------
||----------------------------------------------------------------
||----------------------------------------------------------------
||----------------------------------------------------------------


||---17-19-17-16-14--16-17-19-17-19-17-16-14----------------------
||----------------------------------------------------------------
||----------------------------------------------------------------
||----------------------------------------------------------------
||----------------------------------------------------------------
||----------------------------------------------------------------


||----------------------------------------------------------------
||---15-17-15-17-15-14---12---15---19-----------------------------
||----------------------------------------------------------------
||----------------------------------------------------------------
||----------------------------------------------------------------
||----------------------------------------------------------------


||---17-19-17-16-14--16-17-19-17-19-17-16-14----------------------
||----------------------------------------------------------------
||----------------------------------------------------------------
||----------------------------------------------------------------
||----------------------------------------------------------------
||----------------------------------------------------------------


||----------------------------------------------------------------
||---15-17-15-17-15-14---12---15---19-----------------------------
||----------------------------------------------------------------
||----------------------------------------------------------------
||----------------------------------------------------------------
||----------------------------------------------------------------
Suggest correction
Give kudos to tab author, rate the tab!
1 2 3 4 5
comments
print report bad tab
guest
You may want to rate the tab now too:
select rating
Wanna post a correction for this tab? Suggest correction