Oops, an error
Loading. Please wait.

Clase 406 - Dos Enamorados Tab

4 views 1 this week
no commentswrite comment
1 2 3 4 5
3 more votes to show rating
add to favorites
launch autoscroll
font size
0
reset
how to read this tab
guitar tuner
×
Best way to learn
"Clase 406 - Dos Enamorados"
Autoscroll
slow
fast
+/-
esc
set tempo
stop
ESTA CANCION ESTA BIEN CHIDA. ESPERO QUE LES GUSTE. ES INSPIRADA 
Y DEDICADA A YOJANA DE LA CRUZ GOMEZ. ESTA ES LA ULTIMA QUE LE DEDICO.
POR QUE ME INSPIRABAN LAS ESPERANZAS DE ALGUN DIA ANDAR CON ELLA PERO
 AHORA ESAS ESPERANZAS ELLA YA LAS MATO.

e/-------------------------------------------
B/-1-0-1-0-----------------------------------
G/---------0-------0-------------------------
D/-----------3-2-3-------5-5-5/3-3-3/2-2-2/3-
A/-------------------3-3---------------------
E/-------------------------------------------

INTRO (ACOMPAÑAMIENTO)
   C               F
e/---------0---------------1-------
B/-----1-------1-------1-------1---
G/---0---0---0---0---2---2---2---2- (DOS VECES)
D/---------------------------------
A/-3-------------------------------
E/-----------------1---------------

   C               F               C               F
B/-----1-------1-------1-------1-------1-------1-------1-------1---
G/---0---0---0---0---2---2---2---2---0---0---0---0---2---2---2---2-
D/-----------------------------------------------------------------
A/-3-------------------------------3-------------------------------
E/-----------------1-------------------------------1---------------
       MAÑANA QUE AMANEZCA LE PEDIRE, MAÑANA QUE LA VEA

   C               F               C               F               
e/---------0---------------1---------------0---------------1---1---
B/-----1-------1-------1-------1-------1-------1-------1---------1-
G/---0---0---0---0---2---2---2---2---0---0---0---0---2---2---2-----
D/-----------------------------------------------------------------
A/-3-------------------------------3-------------------------------
E/-----------------1-------------------------------1---------------
       MAÑANA QUE AMANEZCA ME PEDIRA, MAÑANA QUE LO VEA.

   G             F           G                             
e/-------3---3-----------1-----------3---3-----------1---1-
B/---3---------3-----1-----1-----3---------3-----1---------
G/-4---4---4-------2---2-------4---4---4-------2---2---2---
D/---------------------------------------------------------
A/---------------------------------------------------------
E/---------------1-----------3---------------1-------------
   Y ME PONGO A TEMBLAR        ME MUERO DE LAS GANAS DE ABRAZARTE.

          C               G               F           (GOLPES EN F)
e/----------------0---------------3---------------1---
B/------------1-------1-------3-------3-------1-----1-
G/----------0---0---0---0---4---4---4---4---2---2-----
A/----------------------------------------------------
D/----------------------------------------------------
E/--------3---------------3---------------1-----------
  Y EL CORAZÓN         NO SIENTE NADA        MI AMOR.

Y EMPIEZA EL RASGUEO:

               C           G
SI DICES QUE SI TE PROTEGERE
              F            G
CON TODO MI AMOR Y MI CORAZON
              C           G
SI DIGO QUE SI TE PROMETERE
          F                G
MI FIDELIDAD Y MI COMPRENSIÓN.

                      Dm
Y EN ESTE MUNDO TAN RARO
              F
SE VAN DE LA MANO
             G
UNIENDO CAMINOS
         C
DOS ENAMRADOS.

   G       F                G
OU OH NARANARANARANARANARANA
C    G      F                G
OH OUO NARANARANARANARANARANA.

 C             F               C
MAÑANA QUE AMANEZCA NO SERA IGUAL
                 F
MAÑANA ELLA ME ESPERA
C              F               C
MAÑANA QUE AMANEZCA NO SERA IGUAL
               F
MAÑANA QUE LO VEA.

G               F
Y ME PONGO A REZAR
    G                       F
ME MUERO DE LAS GANAS DE BESARTE
        C               G
Y LA RAZÓN NO ENTIENDE NADA
     F
CORAZÓN.

[ch]B[/ch] DICES...

Y EN ESTE...

OU OH...

TE AMO YOJANA ME VA HA SER MUY DIFICIL OLVIDARTE PERO LO LOGRARE.
ADIOS 
DUDAS Y SUGERENCIAS
MANDENME UN MAIL.
ADIOS
HASTA LA PROXIMA.
Suggest correction
Give kudos to tab author, rate the tab!
1 2 3 4 5
comments
print report bad tab
guest
You may want to rate the tab now too:
select rating
Wanna post a correction for this tab? Suggest correction