Oops, an error
Loading. Please wait.

Decision - Love Hina Ost Tab

40 views 1 this week
no commentswrite comment
1 2 3 4 5
3 more votes to show rating
add to favorites
launch autoscroll
font size
0
reset
how to read this tab
guitar tuner
×
Best way to learn
"Decision - Love Hina Ost"
Autoscroll
slow
fast
+/-
esc
set tempo
stop
Sáquenla con detenimiento, porque es un canción de ritmo lento
(0:05)
e|------------------------------------------
b|------------------------------------------
G|-----7s9--9s14-16--9-----7s9--9s12---9s7--
D|-7----------------------------------------
A|-7----------------------------------------
E|-5----------------------------------------

e|---------------------------
b|-----------8---------------
G|-7-9-7p6-7-----5----5/7-4--
D|---------------------------
A|---------------------------
E|---------------------------

(0:22)
e|-10s12--12s17-19--12-----10s12--12s15---12p10--
b|-----------------------------------------------
G|-----------------------------------------------
D|-----------------------------------------------
A|-----------------------------------------------
E|-----------------------------------------------

e|-10-12-13-15-15-------------------
b|------------------13------12--10--
G|----------------------------------
D|----------------------------------
A|----------------------------------
E|----------------------------------

(0:37)
e|-12-13-15-15s17-----17s19-19s20-20s22s20--15---17v-
b|---------------------------------------------------
G|---------------------------------------------------
D|---------------------------------------------------
A|---------------------------------------------------
E|---------------------------------------------------

e|----------12-13-12-|----------12-13-12-|----------12-13-12--
b|-13-13h15----------|-13-13h15----------|-13-13h15-----------
G|-------------------|-------------------|--------------------
D|-------------------|-------------------|--------------------
A|-------------------|-------------------|--------------------
E|-------------------|-------------------|--------------------

(0:53)
e|-12-13-15-15s17-----17s19-19s20-20s22s20--15---17v-
b|---------------------------------------------------
G|---------------------------------------------------
D|---------------------------------------------------
A|---------------------------------------------------
E|---------------------------------------------------

e|----------12-13-12-|----------12-13-12-|------------------------
b|-13-13h15----------|-13-13h15----------|-15--13---12------------
G|-------------------|-------------------|-------------------9v---
D|-------------------|-------------------|------------------------
A|-------------------|-------------------|------------------------
E|-------------------|-------------------|------------------------

Algunas técnicas MUY fáciles
h: hammer-on (tocar una nota y ,mientras suena, pisar otra nota más
              adelante pero sin tocar la que está sonando)
p: pull-of (como el hammer-on, pero al revés, una nota atrás de la
           que se queda sonando)
s: slide (deslizar el dedo a través del diapasón, de una nota a
          otra)
v: vibrato (deslizar "arriba y abajo" una nota, sin cambiar de
            traste)

Ya si quieren agregenle cuantos arreglos se les ocurran.

----------------------------------------------------------------
Si tienen más ideas de canciones de anime, temas de televisión o
de videojuegos que me sugieran para sacarles un tab, háganmelo
saber a mi msn

saviour_king@

Hasta luego.
Suggest correction
Give kudos to tab author, rate the tab!
1 2 3 4 5
comments
print report bad tab
guest
You may want to rate the tab now too:
select rating
Wanna post a correction for this tab? Suggest correction