Oops, an error
Loading. Please wait.

Digimon - Mariposa Bass Tab

244 views 3 this week
no commentswrite comment
1 2 3 4 5
3 more votes to show rating
add to favorites
launch autoscroll
font size
0
reset
guitar tuner
Autoscroll
slow
fast
+/-
esc
set tempo
stop
Help us to improve Ultimate-Guitar.com Take our survey!
×
Ola otra EzzZ

Me maté busacndo en la Web (web-ando) el tab para bajo de esta cancion
y en resignacion
la sake yo mesmo ! (h) aki sta !


Disculpen las molestias es que mi tab lo escribi al revés =P xD el
G cambien
por E osea el orden de las cuerdas
Intro:

G||---0----0--
D||-----------
A||-----------
E||-----------


G-0-0-0-0-0-0-0-0-----------|
D---------------------------|
A---------------------------|  (4 veces)
E---------------------------|

Verse: (Yo solamente quiero amarte(8)...)

G-0*-0-0(x8)-2-2-4-4(x18)-2-4---------------------------------|
D-----------------------------0-0-0-0-0-0-3-3-3-5-5-5-5/0-----|
A-------------------------------------------------------------|
E-------------------------------------------------------------|

G-0-3h4-0-3h4-0--0-2p0-3p0-4p0-|
D------------------------------|
A------------------------------|   (2 veces)
E------------------------------|

(Con el amoor oh huo (8)... )

G-9(x4)-10--8(x4)-10--7(x12)-8-9(x4)-10--8(x4)-10--7(x12)-8--|
D------------------------------------------------------------|
A------------------------------------------------------------|
E------------------------------------------------------------|

(Y los sueños se van a cumplir (8)...)

G--9-9-9-11---------------------------|
D-----------7--9----------------------|
A-------------------------------------|
E-------------------------------------|


Si tu lo deseas ...(8)

G-------7(x7)--9(x7)-4(x7)--------7(x7)-9--------------------|
D-7(x7)--------------------0-(x7)---------7-9----------------|
A------------------------------------------------------------| (2 veces)
E------------------------------------------------------------|


despues de que dice "tocar" hasta "Digi"


G-9-7-6--9-7-6--9-7-6--9-7-6--9-7------------|
D---------------------------------7----------|
A--------------------------------------------|
E--------------------------------------------|


mon
G---------------------------|
D---------------------------|
A-7(x6)-5(x3)-4(x3)- 5(x2)--|  (4 veces)
E---------------------------|


Outro
G-------------------------------4-5-7-0||
D--------5--4-0------------------------||
A--------------------------------------||
E--------------------------------------||


Que les aproveche, es el primer cover de mi grupo Gracias Andy ^^


*Vibrato
Suggest correction
Give kudos to tab author, rate the tab!
1 2 3 4 5
comments
print report bad tab
guest
You may want to rate the tab now too:
select rating
Wanna post a correction for this tab? Suggest correction