Oops, an error
Loading. Please wait.

Digimon - Mariposa Tab

701 views 3 this week
no commentswrite comment
1 2 3 4 5
2 more votes to show rating
add to favorites
launch autoscroll
font size
0
reset
how to read this tab
guitar tuner
×
Best way to learn
"Digimon - Mariposa"
Autoscroll
slow
fast
+/-
esc
set tempo
stop
ok... e oido muchas veces que buscan la tab de esta cancion haci que para
no sufran mas,,, aqui la traigo...  ahh esta tab solo esta hasta algo
incompleta =P los que la quieran entera diganmelo por mail >> brunos199@..
viva digimon =D!

Intro 1era Guitarra (0:00 - 0:05)

|-----------------------------------------------|
|-----------------------------------------------|
|-9-99-99-99777-6-7----9-99-99-99-99777-6-7-----|
|-x-xx-xx-xxxxx-x-x----x-xx-xx-xx-xxxxx-x-x-----|
|-7-77-77-77555-4-5----7-77-77-99-77555-4-5-----|
|-----------------------------------------------|
    ..    ..             ..       ..

Intro 2da guitarra (0:03 - 0:04)

Aqui tienen que deslizar un borde de la pua o uña
hasta el traste 4 masomenos.. (SOLO CON DISTORCION)

|--19-<<<<<<<<<<<<<<<<<<4-----------------------|
|--19-<<<<<<<<<<<<<<<<<<4-----------------------|
|-----------------------------------------------|
|-----------------------------------------------|
|-----------------------------------------------|
|-----------------------------------------------|

Guitarra 1 (0:05 - 0:11)

|-----------------------------------------------|
|-----------------------------------------------|
|-9-99-99-99-7-6-7--------9-99-99-99-99-7-6-----|
|-x-xx-xx-xx-x-x-x--------x-xx-xx-xx-xx-x-x-----|
|-7-77-77-77-5-4-5--------7-77-77-99-77-5-4-----|
|-----------------------------------------------|

Guitarra 1 (0:11 - 0:17)

|-----------------------------------------------|
|-----------------------------------------------|
|-9-99-99-99-7-6-7--------9-99-99-99-99-7-6-2---|
|-x-xx-xx-xx-x-x-x--------x-xx-xx-xx-xx-x-x-x---|
|-7-77-77-77-5-4-5--------7-77-77-99-77-5-4-0---|
|-----------------------------------------------|


Riff 1 (0:05 - 0:11)
|-----------------------------------------------|
|-9-9^-7-5-7-10//-------9-9^-7-5-7--------------|
|---------------------------------7//-----------|
|-----------------------------------------------|
|-----------------------------------------------|
|-----------------------------------------------|

""""  (0:11 - 0:17)
|-------------------------------10-9------------|
|-9-9^-7-5-7-10//------9-9^-7-5-----7//---------|
|-----------------------------------------------|
|-----------------------------------------------|
|-----------------------------------------------|
|-----------------------------------------------|

Verse (Verso)

Solamente quiero amarte              (0:16 - 019)

|----------------------------|
|----------------------------|
|----------------------------|
|-2-xxxxxxxxxx---------------|
|-2-xxxxxxxxxx---------------|
|-0-xxxxxxxxxx---------------|

Y todo mi calor brindarte           (0:19 - 0:21)

|----------------------------|
|----------------------------|
|----------------------------|
|-6-xxxxxxxxxx---------------|
|-6-xxxxxxxxxx---------------|
|-4-xxxxxxxxxx---------------|

Te hare olvidar                     (0:22 - 0:23)

|----------------------------|
|----------------------------|
|----------------------------|
|-8-xxxxx--------------------|
|-8-xxxxx--------------------|
|-6-xxxxx--------------------|

Esas penas que te hacen mal...      (0:24 - 0:26)

|----------------------------|
|----------------------------|
|----------------------------|
|-10-1010---12-1212----------|
|-10-1010---12-1212----------|
|--8--8-8---10-1010----------|

Parte del Bajo con Guitarra         (0:26 - 0:29)

|-----------------------------------------------|
|-----------------------------------------------|
|-----------------------------------------------|
|-----------------------------------------------| <<< Parte arreglada
|-00-34-0-34-0-0-2-0-3-0-4----------------------|       por Anzter
|-----------------------------------------------|

Hay que dar el sentimiento         (0:29)

|-------------------5-5/3--------|
|-------------------5-5/3--------|
|-------------------x-x-x--------|
|-2-xxxxxxxxxx------7-7/5--------|
|-2-xxxxxxxxxx-------------------|
|-0-xxxxxxxxxx-------------------|

Y cada momento vivirlo

|-------------------5-5/3--------|
|-------------------5-5/3--------|
|-------------------x-x-x--------|
|-6-xxxxxxxxxx------7-7/5--------|
|-6-xxxxxxxxxx-------------------|
|-4-xxxxxxxxxx-------------------|

Te hare olvidar

|--------------------------------|
|--------------------------------|
|--------------------------------|
|-8-xxxxx------------------------|
|-8-xxxxx------------------------|
|-6-xxxxx------------------------|

Esas penas que te hacen mal...     (0:37)

|--------------------------------|
|--------------------------------|
|--------------------------------|
|-10-1010---12-1212--------------|
|-10-1010---12-1212--------------|
|--8--8-8---10-1010--------------|

Parte del Bajo con Guitarra

|-----------------------------------------------|
|-----------------------------------------------|
|-----------------------------------------------|
|-----------------------------------------------| <<< Parte arreglada
|-00-34-0-34-0-0-2-0-3-0-4----------------------|       por Anzter
|-----------------------------------------------|

(o:49 - 0:54)

|-------------------------------x-5-x-5/7-------|
|-------------------------------x-5-x-5/7-------|
|-----2------4------5-----7-----x-7-x-7/9-------|
|---2-----4-------5-----7-----------------------|
|-0-----2-------3-----5-------------------------|
|-----------------------------------------------|

Final

|-----------4-5-7-0------------------|
|------------------------------------|
|-7-6-2/-----------------------------|
|-x-x-x------------------------------|
|-5-4-0/-----------------------------|
|------------------------------------|
Suggest correction
Give kudos to tab author, rate the tab!
1 2 3 4 5
comments
print report bad tab
guest
You may want to rate the tab now too:
select rating
Wanna post a correction for this tab? Suggest correction