Oops, an error
Loading. Please wait.

Digimon 4 Tab

437 views 6 this week
no commentswrite comment
1 2 3 4 5
3 more votes to show rating
add to favorites
×
Save as Personal and add changes to this tab that will be seen only by you. Learn more ›
×
You can save this tab as Personal to edit and correct it or add notes. All changes will be seen only by you. Learn more »
save as personal
new!
launch autoscroll
font size
0
reset
how to read this tab
guitar tuner
Autoscroll
slow
fast
+/-
esc
set tempo
stop
Titulo:Fire!
Serie:Digimon 4
Cantante:Wada Kouji

Esta cancion si se dan cuenta esta con acordes de rock... eso significa
que sonara mas parecido a la cancion.


Intro:
/--------------------5----------/12---10---15---14---10
/----7-7-7-7-----7--------------/----------------------
/-------------------------------/----------------------
/-------------------------------/----------------------   x2
/-------------------------------/----------------------
/-------------------------------/----------------------

/17--21-------/
/-------------/
/-------------/
/-------------/
/-------------/
/-------------/


/--------------------------------------------------------/
/--------------------------------------------------------/
/---7------------------5----------5----------------------/
/---7-------9---7---5--5--5---8---5---7------------------/
/---2---4---9---7---5--3--5---8---3---7------------------/
/-----------7---5---3-----3---6-------5------------------/


Fuego ardiente dentro de mí
Mí mirada esta en el horizonte
[ch]A[/ch] decepción huyo
Llegare a la meta

Se cumplirá se lo se
El futuro un triunfo me depara
Nada se interpondrá
La debilidad se esfumo

Ardiendo esta
La llama al fin
La victoria te pertenece ya
El poder
Del fuego habrás
De tener con un invencible corazón
Tuyo será

En tus ojos hay
Ese gran poder
Resplandece con su gran luz
La frontera tu haz de alcanzar
Mas allá iras

Y mi corazón
Lejos volara
Hacia el horizonte veras
Los conocimientos están
En cualquier lugar
Se expanden por el mundo
Corro sin descansar
Pues junto a ti puedes verlo
Arde la llama en mí


Ya no pienso seguir
Más la reglas que marcan mi vida
Las reinventare
Es mi única salida
Solo escúchame
Mis latidos van acelerando
El fuego que hay en mí
Muy pronto estallara

¿A dónde ir?
¿Cómo llegar?
Las respuestas son difíciles de hallar
¿Será que? Para mi? ya el tiempo a dejado el tiempo de pasar?
¡Vamonos ya!

A mí alrededor
Yo encontrare el poder que me guiara
Mis amigos me ayudaran
A activar [ch]A[/ch] flama
A aquel resplandor
En mi estallara
El destino me guiara
Hacia la frontera ideal
Tanto que buscaba
Rumbo al horizonte
Yo me dirigiré
Nadie podrá detenerme
Arde la llama en mí

En tu ojo hay
Ese gran poder
Resplandece con su gran luz
La frontera tu haz de alcanzar
Mas allá tu iras
Y mi corazon lejos volara
Hacia el horizonte veras
Los conocimientos estan
En cualquier lugar
Se expanden por el mundo
Corro sin descansar
Junto a ti puedes verlo
Arde la llama en mi
Suggest correction
Give kudos to tab author, rate the tab!
1 2 3 4 5
comments
print report bad tab
guest
Wanna post a correction for this tab? Suggest correction