Oops, an error
Loading. Please wait.

Dragon Ball Gt - Caprichosa Bass Tab

82 views 1 this week
no commentswrite comment
1 2 3 4 5
3 more votes to show rating
add to favorites
launch autoscroll
font size
0
reset
guitar tuner
×
Best way to learn
"Dragon Ball Gt - Caprichosa"
Autoscroll
slow
fast
+/-
esc
set tempo
stop
CAPRICHOSA

INTRO

G|---------------------------------|---------------------------------|
D|-6---6---6---6-------------------|-6---6---6---6---------------6---|
A|-----------------------------6---|---------------------------------|
E|---------------------------------|---------------------------------|

G|---------------------------------|---------------------------------|
D|-4---4---4---4-------------------|-4---4---4---4---4---3---4---5---|
A|-----------------------------4---|---------------------------------|
E|---------------------------------|---------------------------------|

G|---------------------------------|---------------------------------|
D|-6---6---6---6-------------------|-6---6---6---6---------------6---|
A|-----------------------------6---|---------------------------------|
E|---------------------------------|---------------------------------|

G|---------------------------------|---------------------------------|
D|-4---4---4---4-------------------|-4---4---4---4---4---------------|
A|-----------------------------4---|---------------------------------|
E|---------------------------------|---------------------------------|

VERSE

G|---------------------------------|---------------------------------|
D|-6---6---6---6---6---6---6---6---|-6---6---6---6---6---6---6---6---|
A|---------------------------------|---------------------------------|
E|---------------------------------|---------------------------------|

G|---------------------------------|---------------------------------|
D|-8---8---8---8---6---6---6---6---|-5---5---5---5---5-----------5---|
A|---------------------------------|-------------------------6-------|
E|---------------------------------|---------------------------------|

G|---------------------------------|---------------------------------|
D|-8---8---8---8---8---8---8---8---|---------------------------------|
A|---------------------------------|-9---9---9---9---9---9---9---9---|
E|---------------------------------|---------------------------------|

G|---------------------------------|---------------------------------|
D|---------------------------------|---------------------------------|
A|-8---8---8---8---8---8---8---8---|-6---6---6---6---6---6---6---6---|
E|---------------------------------|---------------------------------|

G|---------------------------------|---------------------------------|
D|-6---6---6---6---6---6---6---6---|-6---6---6---6---6---6---6---6---|
A|---------------------------------|---------------------------------|
E|---------------------------------|---------------------------------|

G|---------------------------------|---------------------------------|
D|-8---8---8---8---6---6---6---6---|-5---5---5---5---5---5---5---3---|
A|---------------------------------|---------------------------------|
E|---------------------------------|---------------------------------|

G|-3---3---3---3---3---3---3---3---|---------------------------------|
D|---------------------------------|-4---4---4---4---4---4---4---4---|
A|---------------------------------|---------------------------------|
E|---------------------------------|---------------------------------|

G|---------1-----------------------|---------3-----------------------|
D|-----3---------------------------|-----2---------------------------|
A|-4-----------4-------4-------4---|-4-----------4-------4-------4---|
E|---------------------------------|---------------------------------|

PRE-CHORUS

G|---------------------------------|---------------------------------|
D|---------------------------------|---------------------------------|
A|-6---6---6---6---6---6---6---6---|-6---6---6---6---6---6---6---6---|
E|---------------------------------|---------------------------------|

G|---------------------------------|---------------------------------|
D|---------------------------------|---------------------------------|
A|-6---6---6---6---6---6---6---6---|-6-------------------------------|
E|---------------------------------|---------------------------------|

CHORUS

G|---------------------------------|---------------------------------|
D|-6---6---6---6---6---6-------6---|-5---5---5---5---5---5-------5---|
A|-------------------------6-------|-------------------------6-------|
E|---------------------------------|---------------------------------|

G|---------------------------------|-6---6---6---6---6-------6-------|
D|-3---3---3---3---3---3---3-------|---------------------6-------8---|
A|-----------------------------6---|---------------------------------|
E|---------------------------------|---------------------------------|

G|-5---5---5---5---5---5---5---5---|---------------------1-------5---|
D|---------------------------------|-3---3---3---3---3-------3-------|
A|---------------------------------|---------------------------------|
E|---------------------------------|---------------------------------|

G|-3---3---3---3---3---3-----------|-----------------8---------------|
D|-------------------------3---2---|---------3---5-----------8---7---|
A|---------------------------------|-6---6---------------6-----------|
E|---------------------------------|---------------------------------|

G|---------------------------------|---------------------------------|
D|-6---6---6---6---6---6-------6---|-5---5---5---5---5---5-------5---|
A|-------------------------6-------|-------------------------6-------|
E|---------------------------------|---------------------------------|

G|-----------------------------5---|-6---6---6---6---6---6-------6---|
D|-3---3---3---3---3---3---6-------|-------------------------6-------|
A|---------------------------------|---------------------------------|
E|---------------------------------|---------------------------------|

G|-5---5---5---5---5---5---5---5---|---------------------1-------5---|
D|---------------------------------|-3---3---3---3---3-------3-------|
A|---------------------------------|---------------------------------|
E|---------------------------------|---------------------------------|

G|-3---3---3---3---3---3---3---3---|---------------------------------|
D|---------------------------------|---------------------------------|
A|---------------------------------|-6-------------------------------|
E|---------------------------------|---------------------------------|

OUTRO

G|---------------------------------|---------------------------------|
D|-6---6---6---6-------------------|-6---6---6---6---------------6---|
A|-----------------------------6---|---------------------------------|
E|---------------------------------|---------------------------------|

G|---------------------------------|---------------------------------|
D|-4---4---4---4-------------------|-4---4---4---4---4---3---4---5---|
A|-----------------------------4---|---------------------------------|
E|---------------------------------|---------------------------------|

G|---------------------------------|---------------------------------|
D|-6---6---6---6-------------------|-6---6---6---6---------------6---|
A|-----------------------------6---|---------------------------------|
E|---------------------------------|---------------------------------|

G|---------------------------------|
D|-4---4---4---4---4---4---4---6---|
A|---------------------------------|
E|---------------------------------|
Suggest correction
Give kudos to tab author, rate the tab!
1 2 3 4 5
comments
print report bad tab
guest
You may want to rate the tab now too:
select rating
Wanna post a correction for this tab? Suggest correction