Oops, an error
Loading. Please wait.

Dragon Ball Tema De Tapion Tab

version 2
version 2

Whole song

2,735 views 48 this week
2 commentsread comments
1 2 3 4 5
x 7
add to favorites
×
Save as Personal and add changes to this tab that will be seen only by you. Learn more ›
×
You can save this tab as Personal to edit and correct it or add notes. All changes will be seen only by you. Learn more »
save as personal
new!
launch autoscroll
font size
0
reset
how to read this tab
guitar tuner
Autoscroll
slow
fast
+/-
esc
set tempo
stop
Tab for this version
https://www.youtube.com/watch?v=RuKUG-y_7T0

Hola a todos aqui les traigo la melodia de tapion
de otra manera y completa
Siguir la melodia para guiarse

Esta parte es despacio

e|----|0-------7-5-3-|5---------0-2-|3-----3---5-3-|2-------------|
B|0-0-|--------------|--------------|--------------|----------0-0-|
G|----|--------------|--------------|--------------|--------------|
D|----|--------------|--------------|--------------|--------------|
A|----|--------------|--------------|--------------|--------------|
E|----|--------------|--------------|--------------|--------------|

e|0-------7-5-3-|5---------0-2-|3----3-2---0---|0-------------|
B|--------------|--------------|-------------4-|----------0-0-|
G|--------------|--------------|---------------|--------------|
D|--------------|--------------|---------------|--------------|
A|--------------|--------------|---------------|--------------|
E|--------------|--------------|---------------|--------------|

aqui se toca mas rapido

e|0-------0-7-5-3-|5-------5---0-2-|3-------3---5-3-|2-------2-------|
B|--0---0---------|--5---5---------|--3---3---------|--2---2-----0-0-|
G|----0-----------|----5-----------|----3-----------|----2-----------|
D|----------------|----------------|----------------|----------------|
A|----------------|----------------|----------------|----------------|
E|----------------|----------------|----------------|----------------|


e|0-------0-7-5-3-|5-------5---0-2-|3-----3-2---0---|0-------0------|
B|--0---0---------|--5---5---------|--3-----------4-|--0---0--------|
G|----0-----------|----5-----------|----3-----------|----0----------|
D|----------------|----------------|----------------|---------------|
A|----------------|----------------|----------------|---------------|
E|----------------|----------------|----------------|---------------|

bueno espero que les halla gustado y la saquen rapido
Suggest correction
comments
print report bad tab
2 comments total.
0 reply
JDUB360420 10 Dec 04, 2015 05:47 PM

Awesome job would like to play more of this and some of dragonball

0 reply
NSpen1 [tm] 7,149 Mar 24, 2017 07:50 PM

Note: changed back correction because this tab appears to be for https://www.youtube.com/watch?v=RuKUG-y_7T0  and is in E minor, not F minor as all other versions seem to be, and does use the major seventh D# in the melody, rather than the minor seventh.

guest
Wanna post a correction for this tab? Suggest correction