Oops, an error
Loading. Please wait.

Dragon Ball Z Tab

2,954 views 21 this week
1 commentread comment
1 2 3 4 5
3 more votes to show rating
add to favorites
launch autoscroll
font size
0
reset
how to read this tab
guitar tuner
Autoscroll
slow
fast
+/-
esc
set tempo
stop
Help us to improve Ultimate-Guitar.com Take our survey!
×
PUTA KE KOBRADOR¡
 jajajaja.... 

AQUI ESTA LO QUE VENDRIA A SER EL PUNTEO DE LA CANCION DEL DIBUJO ANIMADO 
'DRAGON BALL Z', ES MUY FACIL Y LO HE TRATADO DE ORDENAR DE MANERA QUE LA 
PUEDAN ENTENDER FACILMENTE. ESPERO QUE LES GUSTE A TODOS.

 NOTA: EN LA PARTE QUE VIENE A SER EL SLIDE, SIMPLEMENTE HAGANLO UN POCO
       LENTO PARA QUE PUEDA SONAR MEJOR Y  TRATEN  DE DARLE UN EFECTO DE 
       LIGADO EN LA PARTE FINAL.

VERSO:
  .....  acercandose el peligro ............
E|-------------|-------------|------------------------|
B|-------------|-------------|------------------------|
G|-------------|-------------|---7-7-5-5--5-7-5-------| --REPETIR--
D|-7-9-10-10-7-|-7-9-10-10-7-|-7----------------7-7-9-|-- 2 VECES --
A|-------------|-------------|------------------------|
E|-------------|-------------|------------------------|

  .....  la vida un sueño por lograr.........
E|-------------------|------------------------------|
B|-----8-6-----------|-----8-6----------------------|
G|-9-7-----9-7-9-7-9-|-9-7-----9-7-7-9-9--7-9-9-7-9-|
D|-------------------|-------------------9----------|
A|-------------------|------------------------------|
E|-------------------|------------------------------|

CORO:
  ...... juega niño el poder nuestro es.......
E|-10-9-7----|----7-7--------|-10-9-7----|--------7-7-|
B|--------10-|-10-----10-7-7-|--------10-|-7-7-10-----|
G|-----------|---------------|-----------|------------|
D|-----------|---------------|-----------|------------|
A|-----------|---------------|-----------|------------|
E|-----------|---------------|-----------|------------|

  ...... goku llegara al final y luchar con.......
E|-7-9-10-10-7-|-9-10-7-|-7/9-9-6-|-7/9-9-6-|
B|-------------|--------|---------|---------|
G|-------------|--------|---------|---------|
D|-------------|--------|---------|---------|
A|-------------|--------|---------|---------|
E|-------------|--------|---------|---------|

  ...... en los campos deja las flores......
E|-10-9-7----|-----------------------|
B|--------10-|-7-7-7-9-9--9-7-9-9/10-|
G|-----------|-----------------------|
D|-----------|-----------------------|
A|-----------|-----------------------|
E|-----------|-----------------------|

  ..... te convertiras en ....
E|-10-9-7----|----7-7--------|-10-9-7----|--------7-7-|
B|--------10-|-10-----10-7-7-|--------10-|-7-7-10-----|
G|-----------|---------------|-----------|------------|
D|-----------|---------------|-----------|------------|
A|-----------|---------------|-----------|------------|
E|-----------|---------------|-----------|------------|

  ...... el gran luchador ........
E|-7-9-10-10-7-|-9-10-7-|-7/9-9-6-|-7/9-9-6-|
B|-------------|--------|---------|---------|
G|-------------|--------|---------|---------|
D|-------------|--------|---------|---------|
A|-------------|--------|---------|---------|
E|-------------|--------|---------|---------|

  ...... y veremos a las .........
E|-10-9-7----|-----------------------|
B|--------10-|-7-7-7-9-9--9-7-9-9/10-|
G|-----------|-----------------------|
D|-----------|-----------------------|
A|-----------|-----------------------|
E|-----------|-----------------------|

ESTE TAB ESTA DEDICADO COMO SIEMPRE PARA LA PERSONA QUE MAS AMO
ELLA SE LLAMA 'CANDY LISET LLERENA TITO', QUE CREO QUE LE GUSTA ESTE DIBUJO
TE AMO MUCHO CANDY Y ESO NADA LO CAMBIARA
***********KENNY AMA A CANDY****************
Suggest correction
Give kudos to tab author, rate the tab!
1 2 3 4 5
comments
print report bad tab
1 comment total.
0 reply
patito2003 10 Jul 27, 2016 09:30 PM

dibujo animado? eso se llama anime :v

guest
You may want to rate the tab now too:
select rating
Wanna post a correction for this tab? Suggest correction